>
 >
Adolescents 2

Adolescents 2 Guitar Tabs

Incubus - Adolescents 2 chords, tabs, tablatures, lyrics

Guitar lessons | Add/correct | Request | Top 50 tabs Artists:  A B C D E F G H I J K L M N O P Q R S T U V W X Y Z 0-9

Adolescents 2 Guitar Tabs – Incubus

CD, Sheet music, Poster

Do you like Adolescents 2? Share with your friends now
Bass TabsBass Tabs v2ChordsTabsTabs v2Tabs v3Ukulele
Band: Incubus

Tuning: Standard

This tab is a mixture of the studio and live versions. Use a combination
of Reverb & Delay to get the desired effect. Please rate and comment.
Suggestions appreciated. Enjoy. 
                                                         
INTRO

|---------------------------------------------------------------------------------------|
|---------------------------------------------------------------------------------------|
|------------------------------------------12-----12--12p0-----------------------12-----|
|-2----2-------5----5-------10----10--------------------------13\12----10p12------------|
|-3------3-----6------6-----11-------11-------------------------------------------------| 
|-3--3-----3---6--6-----6---11--11------11----11-----------11-------11--------11-----11-|

[Play 2nd Time]
|-------------------------------------------------------------------------|
|-------------------------------------------------------------------------|
|------------------12-----12---13--12--0----------------------------------| 
|-10-----10------------------------------13--13--12--10-------------------|
|-11--------11------------------------------------------11--11--10--------|
|-11--11-------11------11------------------------------------------11--10-|

[Play 3rd, 4th Time]
|---------------------------------------------------|
|---------------------------------------------------|
|----------------12----12--------------12-----12----|
|-10----10----------10--------10-----------10-------|
|-11-------11--------------------11-----------------|
|-11--11------11-----------11-------11-----------11-|

VERSE

[0:27]

|---------------------------------------------------------------------------------------|
|---------------------------------------------------------------------------------------|
|------------------------------------------12-----12--12p0-----------------------12-----|
|-2----2-------5----5-------10----10--------------------------13\12----10p12------------|
|-3------3-----6------6-----11-------11-------------------------------------------------| 
|-3--3-----3---6--6-----6---11--11------11----11-----------11-------11--------11-----11-|


|---------------------------------------------------------------------|
|---------------------------------------------------------------------|
|--------------------------------------12----12-----------12----12----|
|-2----2-----5----5-----10----10----------10------10---------10-------|
|-3-----3----6-----6----11-------11-----------------11----------------|
|-3--3---3---6--6---6---11--11------11----------11-----11----------11-|


|----------------------------------------------------------------------------|
|----------------------------------------------------------------------------|
|---------------------------------------12----12-----------------------------|
|-2----2-----5----5------10----10----------10-------10-----13--12--10--------|
|-3-----3----6-----6-----11-------11-------------------11--------------11----|
|-3--3---3---6--6---6----11--11------11----------11-----------------------11-|


|---------------------------------------------------------------------|
|---------------------------------------------------------------------|
|--------------------------------------12----12-----------12----12----|
|-2----2-----5----5-----10----10----------10------10---------10-------|
|-3-----3----6-----6----11-------11-----------------11----------------|
|-3--3---3---6--6---6---11--11------11----------11-----11----------11-|

PRE CHORUS (Live Version)

[0:54]

|--------------------------------------------------|
|--------------------------------------------------|
|-7p5---8-----5----5-----7p5---8-----5----5----5---|  
|-----5---5---6p5--6p5-------5---5---6p5--6p5--6p5-| x 2
|--------------------------------------------------|  
|--------------------------------------------------|  

CHORUS 

[1:02]

[Very Fast Strumming]
|-11--13-------------|
|-13--13--13--13--13-|
|---------14--12--10-|
|--------------------|x 2
|--------------------| 
|--------------------|

[1:14]

|-11--13--11--13--11--13-------------------------|
|-13--13--13--13--13--13--13--13--13--13--13--13-|
|-------------------------14--12--10--14--12--10-|
|------------------------------------------------|
|------------------------------------------------| 
|------------------------------------------------|

INTERLUDE

[1:30]

|---------------------------------------------------------------------|
|---------------------------------------------------------------------|
|--------------------------------------12----12-----------12----12----|
|-2----2-----5----5-----10----10----------10------10---------10-------|
|-3-----3----6-----6----11-------11-----------------11----------------|
|-3--3---3---6--6---6---11--11------11----------11-----11----------11-|


[Play 2nd Time]
|------------------------------------------------------------------------|
|------------------------------------------------------------------------|
|------------------12------13--12--0-------------------------------------| 
|-10-----10--------------------------13--13--12--10----------------------|
|-11--------11---------------------------------------11--11--10----------|
|-11--11-------11------11-----------------------------------------11--10-|

VERSE

PRE CHORUS 

SOLO

|-------------------------------------------13br15--11--13--8br10--10-|
|---1----3---6---8----13----15--------13------------------------------|
|-3---3----5---8---10----15----17--15----15---------------------------|
|---------------------------------------------------------------------|
|---------------------------------------------------------------------|
|---------------------------------------------------------------------| 


|------------------------------------------13br15--11--13--15b-|
|---1----3---6---8----13----15--------13-----------------------|
|-3---3----5---8---10----15----17--15----15--------------------|
|--------------------------------------------------------------|
|--------------------------------------------------------------|
|--------------------------------------------------------------|


|-------------------------------------------13br15--11-13-11--10-11-10-10b-|
|---1----3---6---8----13----15--------13-----------------------------------|
|-3---3----5---8---10----15----17--15----15--------------------------------| 
|--------------------------------------------------------------------------|
|--------------------------------------------------------------------------|
|--------------------------------------------------------------------------|


|------------------------------------------13br15--11--13--15b-|
|---1----3---6---8----13----15--------13-----------------------|
|-3---3----5---8---10----15----17--15----15--------------------|
|--------------------------------------------------------------|
|--------------------------------------------------------------|
|--------------------------------------------------------------|

 
BRIDGE

[3:12] 

|---------------------------|
|---------------------------|
|---------------------------|
|---------------------------|x 7
|----------4--6--4-----4----| 
|-2--4--6-----------6-----4-|


[3:54]
|---------------------------------------|
|---------------------------------------|
|---------------------------------------|
|-------------------8-8-8-8-8-8-8-8-8-8-|
|----------4--6--4--8-8-8-8-8-8-8-8-8-8-| 
|-2--4--6-----------6-6-6-6-6-6-6-6-6-6-|

                    PM.............

CHORUS

[4:00] 

|-11--13--11--13--11--13-------------------------------------------------|
|-13--13--13--13--13--13--13--13--13--13--13--13--13--13--13--13--13--13-|
|-------------------------14--12--10--14--12--10--14--12--10--14--12--10-|
|------------------------------------------------------------------------|
|------------------------------------------------------------------------| 
|------------------------------------------------------------------------|

OUTRO

[4:33]

|---------------------------|
|---------------------------|
|---------------------------|
|---------------------------|
|----------4--6--4-----4----| 
|-2--4--6-----------6-----4-|





Comments


Popular Incubus tabs & chords
New Skin Bass Tabs
Admiration Chords
Pardon Me 2 Chords
Cloudeater Tabs
Drive 13 Tabs
Earth To Bella Part 1 Tabs
Isadore Intro 1 Tabs
Just A Phase Complete Tabs
Talk Show On Mute 3 Tabs
Talk Show On Mute 5 Tabs


Song lyrics



↑ Back to top | Tablatures and chords are parodies/interpretations of the original songs. You may use it for private study, scholarship, research or language learning purposes only
© 2014 AZChords.com Contact us | Privacy policy | DMCA | Add/correct tabs | Request tabs | Top 50 tabs