» » »

Incubus, Adolescents Tabs (ver.2)

Artists:  A B C D E F G H I J K L M N O P Q R S T U V W X Y Z # 

Adolescents Tabs (ver.2)

Incubus Tabs
 Rating:
3.8/5 (5 votes)
Adolescents lessons Tabs too difficult? Try these video lessons and learn fast
                Adolescents
Incubus
If Not Now When?

This is pretty close to how mike plays it live


Intro

E---------------------------------------------------------------------------|
B---------------------------------------8------------------------ 8---------|
G-------------------------------8-----------8-------------8-----------------|
D---2----2-------5----5---10------10----------10--8h10------10--------10----|
A---3--3---3---6---6--6---11--11-----11---11-----------11------11--11----11-|
E---------------------------------------------------------------------------|

E-----------------------------------------------------------------------|
B---------------------------------------8--------9-8--------------------|
G-------------------------------8-----------8---------8-8-7--5----------|   X2
D---2----2-------5----5---10------10----------10---------------6-6-5----|
A---3--3---3---6---6--6---11--11-----11---11-------------------------6-5|
E-----------------------------------------------------------------------|

Verse
E---------------------------------------------------------------------------|
B---------------------------------------8------------------------ 8---------|
G-------------------------------8-----------8-------------8-----------------|
D---2----2-------5----5---10------10----------10--8h10------10--------10----|
A---3--3---3---6---6--6---11--11-----11---11-----------11------11--11----11-|
E---------------------------------------------------------------------------|

E---------------------------------------------------------------------------|
B--------------------------------------8------------------------------------|
G-------------------------------8----------8------------8------8------------|X2
D---2----2-------5----5---10------10----------10--8h10----10-----12-11------|
A---3--3---3---6---6--6---11--11-----11--11-----------11-----11-------11-10-|
E---------------------------------------------------------------------------|

Pre-Chorus
E-------------------------------------------|
B-------------------------------------------|
G-------------------------------------------|
D-12p10-10-13-13-13--12p10-10-13-13-13-13---|
A-------------11-11--------------11-11-11---|
E-------------------------------------------|

Chorus
E----11-X12--13-X20---------------------|         |-11-X12--13-X32--11-X32--13X20--|
B-------------------10-X6--8-X6--6-X20--|         |--------------------------------|
G---------------------------------------| X2      |--------------------------------|
D---------------------------------------|         |--------------------------------|
A---------------------------------------|         |--------------------------------|
E---------------------------------------|         |--------------------------------|

E------------------------|
B---10-X6--8-X6--6-X20---|
G------------------------|
D------------------------|
A------------------------|
E------------------------|

Chorus Chords
E---8----4----1--1----------|
B---8----4----1--1----------|
G---8----5----3--2----------|
D--10----6----X--3----------|
A--10----6----3--3----------|
E---8----4----1--1----------|

Intro X1
Verse
Pre-Chorus
Chorus

Solo
E-------------------------------------------------15b(16)b15-11-13-10b(11)b10--|
B-------------------8--8--------15--15-----------------------------------------|
G--3s5-7p5 7p5-5s8h10-10-10-15h17--17--15h17-15h17-----------------------------|
D------------------------------------------------------------------------------|
A------------------------------------------------------------------------------|
E------------------------------------------------------------------------------|

E-------------------------------------------------15b(16)b15-11-13-15b(16)b15--|
B-------------------8--8--------15--15-----------------------------------------|
G--3s5-7p5 7p5-5s8h10-10-10-15h17--17--15h17-15h17-----------------------------|
D------------------------------------------------------------------------------|
A------------------------------------------------------------------------------|
E------------------------------------------------------------------------------|


E------------------------------------------------15b(16)b15-11-13-11-10-11-10-|
B-------------------8--8--------15--15----------------------------------------|
G--3s5-7p5 7p5-5s8h10-10-10-15h17--17--15h17-15h17----------------------------|
D-----------------------------------------------------------------------------|
A-----------------------------------------------------------------------------|
E-----------------------------------------------------------------------------|

E-------------------------------------------------15b(16)b15-11-13-15b(16)b15-|b
B-------------------8--8--------15--15----------------------------------------|
G--3s5-7p5 7p5-5s8h10-10-10-15h17--17--15h17-15h17----------------------------|
D-----------------------------------------------------------------------------|
A-----------------------------------------------------------------------------|
E-----------------------------------------------------------------------------|

E-(16)--2---------|
B-----------------|
G-----------------|
D-----------------|
A-----------------|
E-----------------|

*No guitar in Slow Part*
Chorus
            
Submit corrections

comments powered by Disqus
↑ Back to top | Incubus Tabs for Adolescents. Lyrics for acoustic guitar and electric guitar. Tablatures and chords are parodies/interpretations of the original songs. You may use it for private study, scholarship, research or language learning purposes only