» » »

Incubus, Adolescents Bass tabs (ver.2)

Artists:  A B C D E F G H I J K L M N O P Q R S T U V W X Y Z # 

Adolescents Bass tabs (ver.2)

Incubus Tabs
 Rating:
4/5 (4 votes)
Adolescents lessons Tabs too difficult? Try these video lessons and learn fast
                ----------------------------------------------------------------
                     Adolescents - Incubus
----------------------------------------------------------------


There is an unmistakable E flat in the main verse line and a
5-string is a must - or play up an octave. There are a few
flourishy and transitiony parts that are not written so you're
just going to have to be creative with your own :) Enjoy.

G|Intro:-(NO BASS, VERSE STARTS AT 0:26)-----------------------|
D|-------------------------------------------------------------|
A|-------------------------------------------------------------|
E|-------------------------------------------------------------|
B|-------------------------------------------------------------|

G|Verse:-------------------------------------------------------|
D|-------------------------------------------------------------|
A|-------------------------------------------------------------|
E|-468-68-6--------468-68-6--------468-68-6--------468-68-6----|
B|---------4\--------------4\--------------4\--------------4\--|

G|Pre----------------------------------------------------------|
D|Chorus:------------------------------------------------------|
A|-------------------------------------------------------------|
E|-468-68-6-4-4-8-68-68-6-4-4-4---8-68-6-4-4-8-68-68-6-4-4-4---|
B|-------------------------------------------------------------|

G|Chorus:------------------------------------------------------|
D|-------------------------------------------------------------|
A|---------------------------------------------------8-8-8-8-8-|
E|-8-8-4-4-4-4-4-----------------8-8-4-4-4-4-4-----8-----------|
B|---------------6-6-6-6-6-6-6-6---------------6-6-------------|

G|-------------------------------------------------------------|
D|-------------------------------------------------------------|
A|--------------------------------------------------8-8-8-8-8--|
E|-8-8-4-4-4-4-4---------4-4-4-4-8-8-4-4-4-4-4-----8-----------|
B|---------------6-6-6-6-----------------------6-6-------------|

G|----------------Transition:---------------------|
D|------------------------------------------------|
A|----8-8-8-8-8-8---------------------------------|
E|--8--------------468-68-6--------468-68-6-------|
B|6------------------------4\--------------4\-----|

G|Verse:-------------------------------------------------------|
D|-------------------------------------------------------------|
A|-------------------------------------------------------------|
E|-468-68-6--------468-68-6--------468-68-6--------468-68-6----|
B|---------4\--------------4\--------------4\--------------4\--|

G|Pre----------------------------------------------------------|
D|Chorus:------------------------------------------------------|
A|-------------------------------------------------------------|
E|-468-68-6-4-4-8-68-68-6-4-4-4---8-68-6-4-4-8-68-68-6-4-4-4---|
B|-------------------------------------------------------------|

G|Chorus:------------------------------------------------------|
D|-------------------------------------------------------------|
A|---------------------------------------------------8-8-8-8-8-|
E|-8-8-4-4-4-4-4-----------------8-8-4-4-4-4-4-----8-----------|
B|---------------6-6-6-6-6-6-6-6---------------6-6-------------|

G|-------------------------------------------------------------|
D|-------------------------------------------------------------|
A|--------------------------------------------------8-8-8-8-8--|
E|-8-8-4-4-4-4-4---------4-4-4-4-8-8-4-4-4-4-4-----8-----------|
B|---------------6-6-6-6-----------------------6-6-------------|

G|----------------|
D|----------------|
A|----8-8-8-8-8-8-|
E|--8-------------|
B|6---------------|

G|Guitar------------------------------------------|
D|Solo:-------------------------------------------|
A|-------6-6----------------------6-6-------------|
E|-8-68-6----4-4-4-4-4-4----8-68-6----4-4-4-4-4-4-|
B|------------------------------------------------|

G|------------------------------------------------|
D|------------------------------------------------|
A|-------6-6----------------------6-6-------------|
E|-8-68-6----4-4-4-4-4-4----8-68-6----4-4-4-4-4-4-|
B|------------------------------------------------|

G|Bridge:------------------------------------------------------|
D|-------------------------------------------------------------|
A|-----------4-4-----------6-6------------4-4-----------6-6----|
E|-2-2-2-2-2-----4-4-4-4-4------2-2-2-2-2-----4-4-4-4-4--------|
B|-------------------------------------------------------------|

G|-------------------------------------------------------------|
D|-------------------------------------------------------------|
A|-----------4-4-----------6-6------------4-4-----------6-6----|
E|-2-2-2-2-2-----4-4-4-4-4------2-2-2-2-2-----4-4-4-4-4--------|
B|-------------------------------------------------------------|

G|Chorus:------------------------------------------------------|
D|-------------------------------------------------------------|
A|---------------------------------------------------8-8-8-8-8-|
E|-8-8-4-4-4-4-4-----------------8-8-4-4-4-4-4-----8-----------|
B|---------------6-6-6-6-6-6-6-6---------------6-6-------------|

G|-------------------------------------------------------------|
D|-------------------------------------------------------------|
A|--------------------------------------------------8-8-8-8-8--|
E|-8-8-4-4-4-4-4---------4-4-4-4-8-8-4-4-4-4-4-----8-----------|
B|---------------6-6-6-6-----------------------6-6-------------|

G|----------------Transition:---------------------|
D|------------------------------------------------|
A|----8-8-8-8-8-8-----8-8-8-8-8-8-----8-8-8-8-8-8-|
E|--8---------------8---------------8-------------|
B|6---------------6---------------6---------------|

G|Outro:-------------|
D|-------------------|
A|-------4-64---4----|
E|---4-6------6---4--|
B|-7-----------------|

================================================================
            
Submit corrections

comments powered by Disqus
↑ Back to top | Incubus Bass for Adolescents. Lyrics for acoustic guitar and electric guitar. Tablatures and chords are parodies/interpretations of the original songs. You may use it for private study, scholarship, research or language learning purposes only