Home » T » Them Crooked Vultures »

Them Crooked Vultures - No One Loves Me And Neither Do I Tabs

Artists:  A B C D E F G H I J K L M N O P Q R S T U V W X Y Z # 

No One Loves Me And Neither Do I Tabs

(ver. 1) Click to play this song!
Them Crooked Vultures
 Rating:
4/5 (12 votes)
                Them Crooked Vultures - No One Loves Me & Neither Do I


Tuning - A A D G B e (Dropped A)


Intro/Main Riff:
e|------------------------5-------------------------------------------|
B|------------------------5-------------------------------------------|
G|------------------------5-------------------------------------------|
D|--//15---------5-5-6-7-----7-7-6h7p6-5--7---------------------------|
A|------15\\-----5-5-6-7------------------7---------------------------|
A|--------------------------------------------------------------------|


Various Riffs:
e|------------5----------------------------------|
B|------------5----------------------------------|
G|------------5-------------------7b8--7b8-------|
D|---5-5-6-7---------7-7-6h7p6-5-----------------|
A|---5-5-6-7-------------------------------------|
A|-----------------------------------------------|

e|-----------------------------------------------|
B|-----------------------------------------------|
G|----------7b8-7-5-7-5~-------------------------|
D|---5-5-6-7-------------7-7-6h7p6-5-------------|
A|---5-5-6-7-------------------------------------|
A|-----------------------------------0-3//11\\0--|

e|-----------------------------------------------|
B|-----------------------------------------------|
G|----------7b8-7-5-7-5--------------------------|
D|---5-5-6-7------------7---7-7-6h7p6-5--7--7----|
A|---5-5-6-7-----------------------------7--7----|
A|-----------------------------------------------|

e|------------------5h8b9------------------------|
B|-----------------------------------------------|
G|---------------5h7-----------------------------|
D|---5-5-6-7--5h7---------7-7-6h7p6-5--7---------|
A|---5-5-6-7---------------------------7---------|
A|-----------------------------------------------|


Chorus:                                       [second time]
e|-------------------------------------------|------------------------|
B|-------------------------------------------|------------------------|
G|---7-7-7-7---7b9-7-5------------5p4--------|------2-2--x------8-8~--|
D|---7-7-7-7------------7-7-7-7------7p5-----|----3---3--x----9---9~--|
A|----------------------7-7-7-7---------7p5--|--3-----3--x--9-----9~--|
A|-------------------------------------------|------------------------|


First Riff after Chorus:
e|-----------------------------------------------|
B|-----------------------------------------------|
G|------------5-------------------7b8------------|
D|---5-5-6-7---------7-7-6h7p6-5-----------------|
A|-----------------------------------------------|
A|-----------------------------------------------|


Transition:
e|--------------------------------------------------------------------|
B|--------------------------------------------------------------------|
G|--------------------------------------------------------------------|
D|--------------------------------------------------------------------|
A|--------------------------------------------------------------------|
A|---12-10-12-10-12-10---3-0-3-0-----11-10-11-10-11-10---7-5-7-5------|


Huah:
e|--------------------------------------------------------------------|
B|--------------------------------------------------------------------|
G|--------------------------------------------------------------------|
D|--------------------------------------------------------------------|
A|----------10-11-12--------10-11-12--------10-11-12--------10-11-12--|
A|---12//-0----------12//-0----------12//-0----------12//-0-----------|


Mid-Riff:
e|--------------------------------------------------------------------|
B|--------------------------------------------------------------------|
G|--------------------------------------------------------------------|
D|--------------------------------------------------------------------|
A|--------6h7h8------8h9h10-------------------------------------------|
A|---6h7h8-----8h9h10------12//-0-------------------------------------|


Odd Rhythm Riff:
e|--------------------------------------------------------------------|
B|--------------------------------------------------------------------|
G|--------------------------------------------------------------------|
D|--------------------------------------------------------------------|
A|-10-11-12--------10-11-12--------10-11-12--10-11-12--------10-11-12-|
A|----------12//-0----------12//-0--------------------12//-0----------|

e|--------------------------------------------------------------------|
B|--------------------------------------------------------------------|
G|--------------------------------------------------------------------|
D|--------------------------------------------------------------------|
A|--------10-11-12----------------10-11-12--------10-11-12------------|
A|-12//-0----------12//-0--12//-0----------12//-0----------12//-0-----|


Second Guitar Riff:
e|--------------------------------------------------------------------|
B|--------------------------------------------------------------------|
G|--------------------------------------------------------------------|
D|----------12h13-10--------12h13-10--------12h13-10--------12h13-10--|
A|--------------------------------------------------------------------|
A|---12//-0----------12//-0----------12//-0----------12//-0-----------|


Ending Riff 1:
e|--------------------------------------------------------------------|
B|--------------------------------------------------------------------|
G|--------------------------------------------------------------------|
D|--------------------------------------------------------------------|
A|---3h4h5--3h4h5--3h4h5--3h4h5--3h4h5--3h4h5--3h4h5-3h4h5-3h5--------|
A|---3h4h5---------3h4h5---------3h4h5---------3h4h5-------3h5--------|

e|--------------------------------------------------------------------|
B|--------------------------------------------------------------------|
G|--------------------------------------------------------------------|
D|--------------------------------------------------------------------|
A|---5h6h7--5h6h7--5h6h7--5h6h7--5h6h7--5h6h7--5h6h7-5h6h7-5h7--------|
A|---5h6h7---------5h6h7---------5h6h7---------5h6h7-------5h7--------|


Ending Riff 2:
e|--------------------------------------------------------------------|
B|--------------------------------------------------------------------|
G|--------------------------------------------------------------------|
D|--------------------------------------------------------------------|
A|--------------------------------------------------------------------|
A|---12-10-12-10-12-10-12-10-3-0-3-0-3-0-3-0-11-10-11-10-11-10-11-10--|

e|--------------------------------------------------------------------|
B|--------------------------------------------------------------------|
G|--------------------------------------------------------------------|
D|--------------------------------------------------------------------|
A|--------------------------------------------------------------------|
A|---5-7-5-7-5-7-5-7-12-10-12-10-12-10-12-10-3-0-3-0-3-0-3-0-11-10-11-|

e|--------------------------------------------------------------------|
B|--------------------------------------------------------------------|
G|------------------7\------------------------------------------------|
D|------------------7\------------------------------------------------|
A|------------------7\------------------------------------------------|
A|---10-11-10-11-10-7\------------------------------------------------|
            
Submit corrections

↑ Back to top | Tablatures and chords for acoustic guitar and electric guitar, ukulele, drums are parodies/interpretations of the original songs. You may use it for private study, scholarship, research or language learning purposes only