Home » T » Them Crooked Vultures »

Them Crooked Vultures - No One Loves Me And Neither Do I Bass

Artists:  A B C D E F G H I J K L M N O P Q R S T U V W X Y Z # 

No One Loves Me And Neither Do I Bass

(ver. 1) Click to play this song!
Them Crooked Vultures
 Rating:
4.7/5 (12 votes)
                G|----------------------------|
D|0-0-1-2-----7-7-6h7p6p5-----|
A|-------------------------0--|x8
E|-------------------------5--|

G|----------------------   ---------------------|
D|----------------------   ---------------------|
A|5-5-3-5---------------   ---------------------|
E|-----------5-5-(5)-5--x3 1-1-1-1\----7-7-7-7--|
Sometimes play the Bracketted '5' as a '3'

Come back in at 01:15

G|----------------------------|
D|0-0-1-2-----7-7-6h7p6p5-----|
A|-------------------------0--|x7
E|-------------------------5--|

G|----------------------   ---------------------|
D|----------------------   ---------------------|
A|5-5-3-5---------------   ---------------------|
E|-----------5-5-(5)-5--x3 1-1-1-1\----7-7-7-7--|
Sometimes play the Bracketted '5' as a '3'

Come back in at 02:22

G|----------------------------------------------|
D|7-5-7-5-7-5------------6-5-6-5-6-5------------|
A|-------------3-0-3-0~---------------7-5-7-5~--|x3
E|----------------------------------------------|

G|-------------------------------------------|
D|7-5-7-5-7-5------------6-5-6-5-6-5---------|
A|-------------3-0-3-0~---------------7-5~~--|
E|-------------------------------------------|

HUH!
G|------------|
D|----5h6h7\--|
A|3-0---------|x32
E|------------|

========

G|------8h9h10--------10h11h12-----------------------------------|
D|----------------------------------5h6h7------5h6h7------5h6h7--|
A|6h7h8--------8h9h10-----------3-0--------3-0--------3-0--------|
E|---------------------------------------------------------------|

G|------------------------------------------------------|
D|5h6h7------5h6h7-----5h6h7----------5h6h7------5h6h7--|
A|------3-0-------3-0--------3-0--3-0--------3-0--------|
E|------------------------------------------------------|

G|------------------------------------------------------------------|
D|----5h6h7--5h6h7------5h6h7------5h6h7----------5h6h7------5h6h7--|
A|3-0--------------3-0--------3-0--------3-0--3-0--------3-0--------|x2
E|------------------------------------------------------------------|

G|--------------------------------------------|
D|----5h6h7--5h6h7------5h6h7------5h6h7------|
A|3-0--------------3-0--------3-0--------3-0--|
E|--------------------------------------------|

========x2

G|------5h6h7--   ------5h7p5--|
D|-------------   -------------|
A|3h4h5--------x3 3h4h5--------|
E|-------------   -------------|

========x2

G|----7h8p5--   ----7h8p7h8--|
D|-----------   -------------|
A|3-0--------x3 3-0----------|
E|-----------   -------------|

========x2

G|-----------------------------------------------------------------|
D|7-5-7-5-7-5-7-5-----------------6-5-6-5-6-5-6-5------------------|
A|----------------3-0-3-0-3-0-3-0-----------------7-5-7-5-7-5-7-5--|
E|-----------------------------------------------------------------|

G|----------------------------------------------------|
D|7-5-7-5-7-5-7-5-----------------6-5-6-5-6-5-6-5-----|
A|----------------3-0-3-0-3-0-3-0-----------------7\--|
E|----------------------------------------------------|
            
Submit corrections

↑ Back to top | Tablatures and chords for acoustic guitar and electric guitar, ukulele, drums are parodies/interpretations of the original songs. You may use it for private study, scholarship, research or language learning purposes only