» » »

Them Crooked Vultures - Elephants Bass

Artists:  A B C D E F G H I J K L M N O P Q R S T U V W X Y Z # 

Elephants Bass

(ver. 1) Click to play this song!
Them Crooked Vultures
 Rating:
4/5 (7 votes)

 Elephants lessons Tabs too difficult? Try these video lessons and learn fast
 
                OK, should be about 99% right now!

00:11
G|-----------------|
D|------2p0--3-p0--|
G|0-3p0----3-----3-|x4
D|-----------------|

====

G|---------------------7-|
D|------2p0--3-p0--8-h9--|
G|0-3p0----3-----3-------|x4
D|-----------------------|

G|-----------------------|  |------------------------------------------|
D|------3p0---0--0-------|  |0--0--------0--0--------0---0---0-0-0-000-|
G|0-03h5---3------5p3p0--|x2|-----5p3p0-------5p3p0----x---x-----------|
D|-----------------------|  |------------------------------------------|

G|-----------------------|  |------------------------------------------|
D|------3p0--0--0--------|  |0--0--------0--0--------0---0---0-0-0-000-|
G|0-03h5---3------5p3p0--|x2|-----5p3p0-------5p3p0----x---x-----------|
D|-----------------------|  |------------------------------------------|

G|---------------------7-|
D|------2p0--3-p0--8-h9--|
G|0-3p0----3-----3-------|x3
D|-----------------------|

G|---------------------7/-----7/-----7/-----7/-----7/-----7/-----7/-----7/-|
D|------2p0--3-p0--8-h9---8-h9---8-h9---8-h9---8-h9---8-h9---8-h9---8-h9---|
G|0-3p0----3-----3---------------------------------------------------------|
D|-------------------------------------------------------------------------|

====

G|------------|  |--------------------------|
D|------------|  |--------------------------|
G|------------|x3|--------------------------|
D|0--3--5--8/-|  |12-12-12-0h12-15-12-10-8--|

====x2

G|------------------------------------------------------------------|
D|------------------------------------------------------------------|
A|------3h5p3------------3-5-3----------3h5p3---------------7p5-----|x2
E|0--3--------5-3--0--3--------5--0--3--------5-3-000000-3h5---7p5--|

G|---------------   ----------------------------------|
D|---------------   ----------------------------------|
A|---------------x2 ------3h5p3---------------7p5-----|
E|0--3--5--7/10--   0--3--------5-3-000000-3h5---7p5--|

G|------------------------------------------------------------------|
D|------------------------------------------------------------------|
A|------3h5p3------------3-5-3----------3h5p3---------------7p5-----|
E|0--3--------5-3--0--3--------5--0--3--------5-3-000000-3h5---7p5--|

====

G|-------------------   ------------------|
D|-------------------   --------5-5-5-----|
A|-------75-----910--x3 55555555-5-5-555--|
E|0--3--5--5-710-----   ------------------|

G|-------------------   ------------------|
D|-------------------   --------5-5-5-----|
A|-------75-----910--x3 55555555-5-5-555--|
E|0--3--5--5-710-----   ------------------|

====

G|-----------------------------------------------1---------1----1--|
D|-------------------3h5p3h5p3h5p3h5p3--------1h3-------1h3--1h3---|
A|3-3-3--3--3--1h3-3--------------------1-1-1------1-1-------------|
E|-----------------------------------------------------------------|

G|-----------------------------------------------------|
D|-------------5--3--1------------3-5--3-5-7-5-7-8--9--|
A|3-3-5-3--3-3----------3--1--3-5----------------------|
E|-----------------------------------------------------|

G|-------------------------------------------------------------------|
D|-------------------------------------------------------------------|
A|3-3-3-3-3-3-3-3-3-1-1-1-1-1-1-1-1----------------------------------|x2
E|----------------------------------3-3-3-3-3-3-3-3-3-1-3-3-3-1-3-1--|

G|---------------------------------|
D|---------------------------------|
A|3-3-3-3-3-3-3-3-1-1-1-1-1-1-1-1--|
E|---------------------------------|
====

G|---------------   ------------------|
D|---------------   --------5-5-5-----|
A|---------------x3 55555555-5-5-555--|
E|0--3--5--7/10--   ------------------|

G|---------------   ------------------|
D|---------------   --------5-5-5-----|
A|---------------x3 55555555-5-5-555--|
E|0--3--5--7/10--   ------------------|

====

G|------------------------------------------------------------------|
D|------------------------------------------------------------------|
A|------3h5p3------------3-5-3----------3h5p3---------------7p5-----|x2
E|0--3--------5-3--0--3--------5--0--3--------5-3-000000-3h5---7p5--|

G|---------------   ----------------------------------|
D|---------------   ----------------------------------|
A|---------------x2 ------3h5p3---------------7p5-----|
E|0--3--5--7/10--   0--3--------5-3-000000-3h5---7p5--|

G|------------------------------------------------------------------|
D|------------------------------------------------------------------|
A|------3h5p3------------3-5-3----------3h5p3---------------7p5-----|
E|0--3--------5-3--0--3--------5--0--3--------5-3-000000-3h5---7p5--|

====

G|-------------------   ------------------|
D|-------------------   --------5-5-5-----|
A|-------75-----910--x3 55555555-5-5-555--|
E|0--3--5--5-710-----   ------------------|

G|-------------------   ------------------|
D|-------------------   --------5-5-5-----|
A|-------75-----910--x3 55555555-5-5-555--|
E|0--3--5--5-710-----   ------------------|

====

G|-----------------------------------------------1---------1----1--|
D|-------------------3h5p3h5p3h5p3h5p3--------1h3-------1h3--1h3---|
A|3-3-3--3--3--1h3-3--------------------1-1-1------1-1-------------|
E|-----------------------------------------------------------------|

G|-----------------------------------------------------|
D|-------------5--3--1------------3-5--3-5-7-5-7-8--9--|
A|3-3-5-3--3-3----------3--1--3-5----------------------|x2
E|-----------------------------------------------------|

G|-------------------------------------------------------------------|
D|-------------------------------------------------------------------|
A|3-3-3-3-3-3-3-3-3-3-3-3-3-3-3-3-3-7-7-7-7-7-7-7-7-7-7-7-7-7-7-7-7--|
E|-------------------------------------------------------------------|

G|-------------------------------------------------------------------|
D|-------------------------------------------------------------------|
A|3-3-3-3-3-3-3-3-3-1-1-1-1-1-1-1-1----------------------------------|x2
E|----------------------------------3-3-3-3-3-3-3-3-3-1-3-3-3-1-3-1--|

G|------------------------------------------------------------------------|
D|------------------------------------------------------------------------|
A|3-3-3-3-3-3-3-3-3-1-1-1-1-1-1-1-1------------------3----5----7----------|
E|----------------------------------3-3-3-3-3-3-3-3h5--5h7--7h8--8h10p8\--|

G|---------------------------------|
D|---------------------------------|
A|3-3-3-3-3-3-3-3-1-1-1-1-1-1-1-1--|
E|---------------------------------|

====

Nearly there...
G|-----------------------   -------------------|
D|-----------------------   -------------------|
A|-----------75-----910--x3 53353353-53-53-5---|
E|0-xx-3-xx-5--5-710-----   -----------5--5-5--|

G|-----------------------   ------------------|
D|-----------------------   ------------------|
A|-----------75-----910--x3 5-5-5-5787587585--|
E|0-xx-3-xx-5--5-710-----   ------------------|

G|-----------------------   ----------|
D|-----------------------   ----------|
A|-----------75-----910--x3 5-5-5-55--|
E|0-xx-3-xx-5--5-710-----   ----------|

====

G|---------------------7-|
D|------2p0--3-p0--8-h9--|
G|0-3p0----3-----3-------|x3
D|-----------------------|

G|---------------------7/-----7/-----7/-----7/-----7/-----7/-----7/-----7/-|
D|------2p0--3-p0--8-h9---8-h9---8-h9---8-h9---8-h9---8-h9---8-h9---8-h9---|
G|0-3p0----3-----3---------------------------------------------------------|
D|-------------------------------------------------------------------------|

Tab currently in reconstruction!
            
Submit corrections


        Elephants lessons Hard to play? Try these video lessons and learn fast Elephants lessons
        
↑ Back to top | Tablatures and chords for acoustic guitar and electric guitar, ukulele, drums are parodies/interpretations of the original songs. You may use it for private study, scholarship, research or language learning purposes only