» » »

Them Crooked Vultures - Spinning In Daffodils Bass

Artists:  A B C D E F G H I J K L M N O P Q R S T U V W X Y Z # 

Spinning In Daffodils Bass

(ver. 1) Click to play this song!
Them Crooked Vultures
 Rating:
4/5 (4 votes)

 Spinning In Daffodils lessons Tabs too difficult? Try these video lessons and learn fast
 
                I do know he uses a 6 string in this song, but I've generalised it for the regular 4 string bass.

I've only put advanced for the fillers at the end... 

G|-------------|
D|-------------|
A|----8\7/8\7--|x64(00:47 - 01:55)
E|0-0----------|

G|-----------------------------------------------------------------|
D|-----------------------------------------------------------------|
A|----5-7-5--------8\7/8\7------8\7/8\7------8\7/8\7------8\7/8\7--|
E|8-8-------8--0-0----------0-0----------0-0----------0-0----------|

G|----------------------------------------------------|
D|----------------------------------------------------|
A|----5-7-5--------8\7/8\7------8\7/8\7------8\7/8\7--|
E|8-8-------8--0-0----------0-0----------0-0----------|

G|---------------------------------------|
D|---------------------------------------|
A|----5-7-5--------8\7/8\7------8\7/8\7--|
E|8-8-------8--0-0----------0-0----------|

G|-------------------------------------------|
D|-------------------------------------------|
A|----5-7-5--------5-7-5--------5-7-5--------|
E|8-8-------8--8-8-------8--8-8-------8-5-0--|

G|-------------|  |-----|
D|-------------|  |-----|
A|----8\7/8\7--|x7|-----|
E|0-0----------|  |0----|

G|-------------|
D|-------------|
A|----8\7/8\7--|x64(02:24-03:50)
E|0-0----------|

G|-----------------------------------------------------------------|
D|-----------------------------------------------------------------|
A|----5-7-5--------8\7/8\7------8\7/8\7------8\7/8\7------8\7/8\7--|
E|8-8-------8--0-0----------0-0----------0-0----------0-0----------|

G|----------------------------------------------------|
D|----------------------------------------------------|
A|----5-7-5--------8\7/8\7------8\7/8\7------8\7/8\7--|
E|8-8-------8--0-0----------0-0----------0-0----------|

G|---------------------------------------|
D|---------------------------------------|
A|----5-7-5--------8\7/8\7------8\7/8\7--|
E|8-8-------8--0-0----------0-0----------|

G|-------------------------------------------|
D|-------------------------------------------|
A|----5-7-5--------5-7-5--------5-7-5--------|
E|8-8-------8--8-8-------8--8-8-------8-5-0--|

G|-------------|                  |---|
D|-------------|                  |---|
A|----8\7/8\7--|x39(04:10 - 04:50)|---|
E|0-0----------|                  |0--|


G|-----------------------------------------------|
D|-----------------------------------------------|
A|12--12-12--9-10-12-12--9-10-12-12--9-10-12-12--|
E|-----------------------------------------------|

G|-----------------------------------|
D|11--11-11-------11-11-------11-11--|
A|-----------9-10--------9-10--------|
E|-----------------------------------|

G|---------------------------------------------------|
D|12--12-12--10-12--12-12--10-12--12-12--10-12-10-9--|
A|---------------------------------------------------|
E|---------------------------------------------------|

G|--------------------------------------|
D|--------------------------------------|
A|12--12-12--12-12--12-12--12-12--9-10--|
E|--------------------------------------|


During the outro there are these hard fills on the bass... try them out...
G|------------------------10----|
D|-------10h12p10h12p10h12--12--|
A|9h10h12-----------------------|
E|------------------------------|

G|--------------------------912--|
D|------------------------10-----|
A|12p10p9-12p10p9-12p10p12-------|
E|-------------------------------|

G|--------------------10h12--|
D|-----12-10------9h12-------|
A|10-10------10h12-----------|
E|---------------------------|

G|------------------------------|
D|------------------------------|
A|10-10-12p10-1010h12p10h12p10--|
E|------------------------------|

G|----10------------------10---------10----------|
D|--------------------------12p10-12---12p10-12--|
A|8-8----8h10p8h10p8h10p8------------------------|
E|-----------------------------------------------|

and then much much more finger-blistering fillers which I'll probably tab eventually
            
Submit corrections


        Spinning In Daffodils lessons Hard to play? Try these video lessons and learn fast Spinning In Daffodils lessons
        
↑ Back to top | Tablatures and chords for acoustic guitar and electric guitar, ukulele, drums are parodies/interpretations of the original songs. You may use it for private study, scholarship, research or language learning purposes only