» » »

Them Crooked Vultures - Dead End Friends Bass

Artists:  A B C D E F G H I J K L M N O P Q R S T U V W X Y Z # 

Dead End Friends Bass

(ver. 1) Click to play this song!
Them Crooked Vultures
 Rating:
4/5 (9 votes)

 Dead End Friends lessons Tabs too difficult? Try these video lessons and learn fast
 
                Spot on now, I swear ;)
G|-----------------|  |----------------------------------------|
D|-----------------|  |----------------------------------------|
A|2-4-4-4-2-4-4-4--|x3|16-16-16-x-15-15-15--4-4-4-4-4-4-4-4-4\-|
E|-----------------|  |----------------------------------------|

G|-------------------------------------------------------2-4-|
D|-------------------------0-0-------------------2-4-2-4-----|
A|4--4-2-4--4-2-4--4-2-4-5-----4--4-2-4--4-2-4-5-------------|
E|-----------------------------------------------------------|

Verse:
G|------------------------------------------------------------------|
D|------------------------------------------------------------------|
A|9--9-7-9--9-7-9--9-7-9-10-9-10-9-9--9-7-9--9-7-9--9-7-/12-10-9-12-|
E|------------------------------------------------------------------|

G|--------------------------------------------------------2-4-|
D|---------------------/5-4---2-------------------2-4-2-4-----|
A|4--4-2-4--4-2-4--4-2------5---4--4-2-4--4-2-4-5-------------|
E|------------------------------------------------------------|

G|-------------------------------------------------------------------|
D|-------------------------------------------------------------------|
A|9--9-7-9--9-7-9--9-7-9-10-9-7-9-9--9-7-9--9-7-9--9-9-/12p10-/12p10-|
E|-------------------------------------------------------------------|

G|---------------------------------------------4~--4-4---------|
D|---------------------/5-7-4-2------------2-4---------4-2-----|
A|4--4-2-4--4-2-4--4-2----------4--4-2-4-5-----------------5-4-|
E|-------------------------------------------------------------|

Chorus:
G|------------------------------------------------------------------------------|
D|-----------------------------4--2-----------------------------2-4-----2-5-----|
A|7~--5~--4--4-2-4--4-2-4--4-2------4-7~--5~--5-7-4--4-2-4--4-2-----4-2-----5-4-|
E|------------------------------------------------------------------------------|

Verse:
G|------------------------------------------------------------------|
D|------------------------------------------------------------------|
A|9--9-7-9--9-7-9--9-7-9-10-12-10-9-9--9-7-9--9-7-9--9-7-/12-10-9-7-|
E|------------------------------------------------------------------|

G|-------------------------2-4----------------------------2-4-|
D|-----------------2-4-2-4----------------2-4-----2-4-2-4-----|
A|4--4-2-4--4-2-4-5------------4--4-2-4-5-----4-5-------------|
E|------------------------------------------------------------|

G|------------------------------------------------------------------|
D|------------------------------------------------------------------|
A|9--9-7-9--9-7-9--9-7-9-10-9-7-9-9--9-7-9--9-7-9--9-9-12-14-12-9-7-|
E|------------------------------------------------------------------|

G|-----------------------------------------------------4-----2-|
D|---------------------/5-7-4-2------------2-4-----2-4---4-5---|
A|4--4-2-4--4-2-4--4-2----------4--4-2-5-4-----5-4-------------|
E|-------------------------------------------------------------|

Chorus:
G|--------------------------------------------------------------------------------|
D|------------------------2-4-----2-4---------------------------------------------|
A|7~--5~--4--4-2-4--4-2-4-----2-4-----2-7~--555-555-4--4-2-4--4-2-4-0-1-2-4-0-1-2-|
E|--------------------------------------------------------------------------------|

G|--------------------------------------------------------------------|
D|------------------------2-2-2---2-2-2-------------------------------|
A|7~--5~--4--4-2-4--4-2-4-------4-------7~--5-555-555-555-554--4-2-4--|
E|--------------------------------------------------------------------|

Bridge:
G|-----------------------------------------------------------------------------------|
D|-----------------------2h4-5p4p2--2h4-5p4p2----------------------------------------|
A|0~--7~--4--4-2-4--4-2-4----------4----------0~--7~--4--4-2-442-4-2-442-4-2-442-4-2-|
E|-----------------------------------------------------------------------------------|

G|----------------------------------264264-------------------------------------|
D|7~------------------------444-555-------------------------------------5~-----|
A|----7~--4--4-2-4--4-2-444----------------0~--7~--4--4-2-4--4-2-4--4-2----4-2-|
E|-----------------------------------------------------------------------------|

Verse:
G|-----------------------------------------------------------------|
D|-----------------------------------------------------------------|
A|9--9-7-9--9-7-9--9-7-9-10-12-10-9-9--9-7-9--9-7-9--9-7-9-12-10-7-|
E|-----------------------------------------------------------------|

G|-------------------------2-4----------------------------2-4-|
D|-----------------2-4-2-4----------------2-4-----2-4-2-4-----|
A|4--4-2-4--4-2-4-5------------4--4-2-4-5-----4-5-------------|
E|------------------------------------------------------------|

Chorus:
G|----------------------------------------------------------------------------------------|
D|----------------------------------------------------------------------------------------|
A|7~--5~--4--4-2-4--4-2-4-2-4-2-4-2-4-2-7~--5-555-555-555-554--4-2-4--4-2-----------------|
E|------------------------------------------------------------------------0-0-2-2-3-3-5-5-|

Outro:
G|--------------------|  |--------|
D|--------------------|  |--------|
A|4~--3~--24-44-24-44-|x3|4~--3~--|
E|--------------------|  |--------|

G|---------------------------------------------------|
D|------------------------022-22-02-22-02222-5-4-2---|
A|24-44-24-44-24-44-24-44--------------------------5-|
E|---------------------------------------------------|

G|---------------------------------------------------|
D|------------------------02-22-02-22-02-22-22-22-22-|
A|24-44-24-44-24-44-24-44----------------------------|x2
E|---------------------------------------------------|

G|--------------------------------------------------------|
D|------------------------0222-222-222-222-222-222-222----|
A|24-44-24-44-24-44-24-44------------------------------2\-|
E|--------------------------------------------------------|
            
Submit corrections


        Dead End Friends lessons Hard to play? Try these video lessons and learn fast Dead End Friends lessons
        
↑ Back to top | Tablatures and chords for acoustic guitar and electric guitar, ukulele, drums are parodies/interpretations of the original songs. You may use it for private study, scholarship, research or language learning purposes only