» » »

Them Crooked Vultures - Gunman Tabs

Artists:  A B C D E F G H I J K L M N O P Q R S T U V W X Y Z # 

Gunman Tabs

(ver. 2) Click to play this song!
Them Crooked Vultures
 Rating:
4.3/5 (16 votes)

 Gunman lessons Tabs too difficult? Try these video lessons and learn fast
 
                [Intro]

e|-------------------------------------|------------------|
B|-------------------------------------|------------------|
G|-------------------------------------|------------------|
D|--19-19---15-15---12-12---6-6--------|------------------|
A|-------------------------------------|--3-5-2------3-5--|
D|--19-19---15-15---12-12---6-6--------|------------------|


[Pre-Verse 1]

E|-------------------------------------|
B|-------------------------------------|
G|-------------------------------------|
D|-------------------------------------| x3
A|----------5/7-------3-5-3-0----------|
D|--3---0---------0-----------3---0----|

E|-------------------------------------|
B|-------------------------------------|
G|-------------------------------------|
D|-------------------------------------|
A|----------5/7-------3-5-2-------3-5--|
D|--3---0---------0--------------------|


[Verse 1]

E|-------------------------------------|
B|-------------------------------------|
G|-------------------------------------|
D|-------------------------------------| x20
A|----------5/7-------3-5-3-0----------|
D|--3---0---------0-----------3---0----|


[Chorus]

E|----------------------------|---------------------|---------------|
B|----------------------------|---------------------|---------------|
G|----------------------------|---------------------|---------------|
D|--12----11----14--15--9~----|--8----10--12--6-----|--7----2--3----| x2
A|----------------------------|---------------------|---------------|
D|--12----11----14--15--9~----|--8----10--12--6-----|--7----2--3----|


[Pre-Solo]

E|-------------------------------------|-------------------------------------|
B|-------------------------------------|-------------------------------------|
G|-------------------------------------|-------------------------------------|
D|-------------------------------------|--------------------------2---0------|
A|----------5/7-------3-5-3-0----------|----------5/7-------3-5-2-------2----|
D|--3---0---------0-----------3---0----|--3---0---------0--------------------|


[Solo - Lead]

E|---------------|---------------------------15----------|
B|------/15~-----|--17----18--17--15--17~---------17~----|
G|--10-----------|---------------------------------------|
D|---------------|---------------------------------------|
A|---------------|---------------------------------------|
D|---------------|---------------------------------------|

E|----------------------------------------|--------------------------------------|
B|----------------------------------------|--------------------------------------|
G|--7-9-10-7-9-10-7-9-10-7-9-10-7-9-10----|--9-10-12-9-10-12-9-10-12-9-10-12-----|
D|----------------------------------------|--------------------------------------|
A|----------------------------------------|--------------------------------------|
D|----------------------------------------|--------------------------------------|

E|---------------------|--15-----------|
B|-----------15-13~----|--------17~----|
G|--14-12-14-----------|---------------|
D|---------------------|---------------|
A|---------------------|---------------|
D|---------------------|---------------|


[Solo - Rhythm]

E|-------------------------------------|
B|-------------------------------------|
G|-------------------------------------|
D|-------------------------------------| x8
A|----------5/7-------3-5-3-0----------|
D|--3---0---------0-----------3---0----|


[Verse 2 - Lead]

E|--------------|
B|--13---15~----|
G|--------------|
D|--------------| x4
A|--------------|
D|--------------|

E|----------------------------------------|
B|----------------------------------------|
G|--7-9-10-7-9-10-7-9-10-7-9-10-7-9-10----|
D|----------------------------------------| x2
A|----------------------------------------|
D|----------------------------------------|

E|---------------------------------------------|
B|---------------------------------------------|
G|--9-10-12-9-10-12-9-10-12-9-10-12-9-10-12----|
D|---------------------------------------------| x2
A|---------------------------------------------|
D|---------------------------------------------|

E|----------------------------------------|
B|----------------------------------------|
G|--7-9-10-7-9-10-7-9-10-7-9-10-7-9-10----|
D|----------------------------------------| x2
A|----------------------------------------|
D|----------------------------------------|

E|---------------------------------------------|
B|---------------------------------------------|
G|--9-10-12-9-10-12-9-10-12-9-10-12-9-10-12----|
D|---------------------------------------------| x2
A|---------------------------------------------|
D|---------------------------------------------|

E|----------------------|--12~----15---12~----|
B|---------15~---15~----|---------------------|
G|----------------------|---------------------|
D|--12~-----------------|---------------------|
A|----------------------|---------------------|
D|----------------------|---------------------|


[Verse 2 - Rhythm]

E|-------------------------------------|
B|-------------------------------------|
G|-------------------------------------|
D|-------------------------------------| x20
A|----------5/7-------3-5-3-0----------|
D|--3---0---------0-----------3---0----|


[Chorus]

E|----------------------------|---------------------|---------------|
B|----------------------------|---------------------|---------------|
G|----------------------------|---------------------|---------------|
D|--12----11----14--15--9-----|--8----10--12--6-----|--7----2--3----| x3
A|----------------------------|---------------------|---------------|
D|--12----11----14--15--9-----|--8----10--12--6-----|--7----2--3----|


[Break]

E|-------|
B|-------|
G|-------|
D|-------|
A|-------|
D|--0----|


[Pre-Verse 3]

E|-------------------|
B|-------------------|
G|-------------------|
D|-------------------|
A|--3-5-2-------3-5--|
D|-------------------|


[Verse 3]

E|-------------------------------------|
B|-------------------------------------|
G|-------------------------------------|
D|-------------------------------------| x16
A|----------5/7-------3-5-3-0----------|
D|--3---0---------0-----------3---0----|


[Chorus]

E|----------------------------|---------------------|---------------|
B|----------------------------|---------------------|---------------|
G|----------------------------|---------------------|---------------|
D|--12----11----14--15--9-----|--8----10--12--6-----|--7----2--3----| x4
A|----------------------------|---------------------|---------------|
D|--12----11----14--15--9-----|--8----10--12--6-----|--7----2--3----|


[Outro]

E|-------------------------------------|
B|-------------------------------------|
G|-------------------------------------|
D|-------------------------------------|
A|----------5/7-------3-5-3-0----------|
D|--3---0---------0-----------3---0----|

E|-------------------------------------|-------------------------------------|
B|-------------------------------------|-------------------------------------|
G|-------------------------------------|-------------------------------------|
D|-------------------------------------|--------------------------2---0------| x2
A|----------5/7-------3-5-2-----3-5----|----------5/7-------3-5-2-------2----|
D|--3---0---------0--------------------|--3---0---------0--------------------|

E|-----------------------------|
B|-----------------------------|
G|-----------------------------|
D|-----------------------------|
A|----------5/7-------3-5-2----|
D|--3---0---------0------------|

            
Submit corrections


        Gunman lessons Hard to play? Try these video lessons and learn fast Gunman lessons
        
↑ Back to top | Tablatures and chords for acoustic guitar and electric guitar, ukulele, drums are parodies/interpretations of the original songs. You may use it for private study, scholarship, research or language learning purposes only