» » »

Them Crooked Vultures - Elephants Tabs

Artists:  A B C D E F G H I J K L M N O P Q R S T U V W X Y Z # 

Elephants Tabs

(ver. 2) Click to play this song!
Them Crooked Vultures
 Rating:
4/5 (25 votes)

 Elephants lessons Tabs too difficult? Try these video lessons and learn fast
 
                Them Crooked Vultures - Elephants



Tuning - D G D G B d


Intro Part 1:
d|--------------------------------------------------------------------| 
B|-----------------------3----------------------3---------------------| x2
G|-------------------3h5--------------------3h5-----------------------| slow 
D|---------2p0--3p0---------------2p0--3p0----------------------------| x4
G|---0--3p0---3----3--------0--3p0---3----3---------------------------| fast
D|--------------------------------------------------------------------| 

Intro Part 2:
d|--------------------------------------------------------------------| 
B|--------------------------------------------------------------------| 
G|------------0-0--------------------0-0-------0-0-------0-0----------| 
D|--0----3p0--0-0--------0-0----3p0--0-0-------0-0-------0-0----------|
G|--0-3h5---5-----5p3-0--0-0-3h5---5-----5p3-0-----5p3-0-----5p3-0----| 
D|--------------------------------------------------------------------| 

d|--------------------------------------------------------------------| 
B|--------------------------------------------------------------------| 
G|--0-0x--0-0x--0x--0x--0x--0x----------------------------------------| 
D|--0-0x--0-0x--0x--0x--0x--0x----------------------------------------| x2 
G|--------------------------------------------------------------------| 
D|--------------------------------------------------------------------| 

Intro Part 3:
d|--------------------------------------------------------------------| 
B|-----------------------3----------------------3---------------------| 
G|-------------------3h5--------------------3h5-----------------------|  
D|---------2p0--3p0---------------2p0--3p0----------------------------| x2
G|---0--3p0---3----3--------0--3p0---3----3---------------------------| 
D|--------------------------------------------------------------------| 

d|--------------------------------------------------------------------| 
B|-----------3/----------3/----------3/----------3/-------------------| 
G|-------3h5---------3-5---------3-5---------3-5----------------------| 
D|---0-0---------0-0---------0-0---------0-0--------------------------| x1 
G|---0-0---------0-0---------0-0---------0-0--------------------------| 
D|--------------------------------------------------------------------| 

Main Riff:
d|--------------------------------------------------------------------| 
B|---3--6--8--11b-3--6--8--11b-3--6--8--11b--3-6-8--6-6/8-8\6-6\3-3~--| 
G|---x--x--x--x---x--x--x--x---x--x--x--x----x-x-x--------------------| 
D|---0--0--0--0---0--0--0--0---0--0--0--0----0-0-0--------------------|
G|---0--0--0--0---0--0--0--0---0--0--0--0----0-0-0--------------------| 
D|--------------------------------------------------------------------| 

d|--------------------------------------------------------------------|
B|-------------------------6-6/8-8\6-6\3-3~-3//15-15-15-15-15~--------| 
G|---3/7-7\6-6\3-3~---------------------------------------------------| 
D|--------------------------------------------------------------------| x2 
G|--------------------------------------------------------------------| 
D|-------------------------[2nd time]---------------------------------| 

Sometimes:
d|--------------------------------------------------------------------| 
B|----14-14-14-15-17-15~-----[or]----14-14-17b-17-15-14~--------------| 
G|--------------------------------------------------------------------| 
D|--------------------------------------------------------------------|  
G|--------------------------------------------------------------------| 
D|--------------------------------------------------------------------| 


Main Riff 2:
d|--------------------------------------------------------------------| 
B|--------------------------------------------------------------------| 
G|---0-xx--------0-xx--------0-xx--------0--0-------------------------| 
D|---0-xx--------0-xx--------0-xx--------0--0-----3-------------------| 
G|---0-xx--------0-xx--------0-xx--------0--0-3-5---5-3-0-------------| 
D|--------8-10-8------8-10-8------8-10-8------------------------------|

Chorus:
d|--------------------------------------------------------------------| 
B|---5--5--5-5--5/8--8-8/11--11-11------------------------------------| 
G|---5--5--5-5----------------------7-9-10-9-9/12-9~------------------| 
D|--------------------------------------------------------------------|
G|--------------------------------------------------------------------| 
D|--------------------------------------------------------------------|

d|--------------------------------------------------------------------| 
B|---10~-10-10-8/10-10--11--10--8--6~---------------------------------| 
G|------------------------------------7-9-10-9-9/12-9~----------------| 
D|--------------------------------------------------------------------| x2
G|--------------------------------------------------------------------| 
D|--------------------------------------------------------------------|

d|--------------------------------------------------------------------| 
B|---5~--5--5-5--5-x--3~--3--3-3--3--3--------------------------------| 
G|---5~--5--5-5--5-x--3~--3--3-3--3--3--------------------------------| 
D|---x~--x--x-x--x-x--x~--x--x-x--x--x--------------------------------| 
G|---5~--5--5-5--5-x--3~--3--3-3--3--3--9--10\9--10\9-----------------| 
D|--------------------------------------7--8-\7--8-\7-----------------| 

Outro:
d|--------------------------------------------------------------------| 
B|-3--6--8--11b-3--6--8--11b-3--6--8--11b-3-6-8-6-------------------3-| 
G|-x--x--x--x---x--x--x--x---x--x--x--x---x-x-x-x---------------3h5---| x1 
D|-0--0--0--0---0--0--0--0---0--0--0--0---0-0-0-0------2p0-3p0--------| slow 
G|------------------------------------------------0-3p0---3---3-------| 
D|--------------------------------------------------------------------|

Then fast like the intro
            
Submit corrections


        Elephants lessons Hard to play? Try these video lessons and learn fast Elephants lessons
        
↑ Back to top | Tablatures and chords for acoustic guitar and electric guitar, ukulele, drums are parodies/interpretations of the original songs. You may use it for private study, scholarship, research or language learning purposes only