» » »

Them Crooked Vultures - Dead End Friends Tabs

Artists:  A B C D E F G H I J K L M N O P Q R S T U V W X Y Z # 

Dead End Friends Tabs

(ver. 3) Click to play this song!
Them Crooked Vultures
 Rating:
3.8/5 (5 votes)

 Dead End Friends lessons Tabs too difficult? Try these video lessons and learn fast
 
                Unfinished at the moment, just running through the tracks

Tuning: Standard but album tuning is probably drop-d

Intro:
e|--------------------------------------------|
B|--------------------------------------------|
G|-18-18-18-14-17-17-17-----------------------|
D|-x--x--x--x--x--x--x------------------------|x4
A|-16-16-16-12-15-15-15-9-11-11-11-9-11-11-11-|
E|----------------------7-9--9--9--7-9--9--9--|

Verse:(Different ending for second part but may just be on second guitar)
e|----------------------------------------|
B|----------------------------------------|
G|----------------------------------------|
D|-11--11-9-11--11-9-11--11-9-11-12-12-12-|x2
A|-9---9--7-9---9--7-9---9--7-9--10-10-10-|
E|----------------------------------------|

e|----------------------------------------|
B|----------------------------------------|
G|----------------------------------------|
D|----------------------------------------|x2
A|-11--11-9-11--11-9-11--11-9-11-12-12-12-|
E|-9---9--7-9---9--7-9---9--7-9--10-10-10-|


Fill Riff:
e|----------------------------|
B|----------------------------|
G|-13--13-9-------------------|
D|----------11--11-9-11-9-----|
A|------------------------11/-|
E|----------------------------|
            
Submit corrections


        Dead End Friends lessons Hard to play? Try these video lessons and learn fast Dead End Friends lessons
        
↑ Back to top | Tablatures and chords for acoustic guitar and electric guitar, ukulele, drums are parodies/interpretations of the original songs. You may use it for private study, scholarship, research or language learning purposes only