Home » T » The Cribs »

The Cribs - Men's Needs Tabs

Artists:  A B C D E F G H I J K L M N O P Q R S T U V W X Y Z # 

Men's Needs Tabs

(ver. 2) Click to play this song!
The Cribs
Intro
e------------------     --------------------|
B--77-5-7-5-5-79---     -77-5-7-5-5-79----5-|
G------------------ x3  --------------------|
D----------------9-     --------------9-----|
A------------------     --------------------|
E------------------     --------------------|

e----------------------------------------------------------------------|
B--77-5-7-5-5-79---77-5-7-5-5-79---5--77-5-7-5-5-79--77-5-7-5-5------5-|
G----------------------------------------------------------------------|
D---------------9---------------9------------------9------------9-9----|
A----------------------------------------------------------------------|
E----------------------------------------------------------------------|

Verse 1
e-------------------------------------|
B--77-5-7-5-5-79----77-5-7-5-5-79---5-|
G-------------------------------------|  x4
D----------------9----------------9---|
A-------------------------------------|
E-------------------------------------|

Chorus
e-------------------------------------------------------------------------|
B--77-5-7-5-5-79----77-5-7-5-5-79----1010999--5------1010999/121212121212-|
G-------------------------------------------------------------------------| x3
D----------------9----------------9---------------9-----------------------|
A-------------------------------------------------------------------------|
E-------------------------------------------------------------------------|

e---------------------------------|
B--77-5-7-5-5-79---------9-7-9-5--|
G---------------------------------|
D----------------9-7/999----------|
A---------------------------------|
E---------------------------------|

Verse 2
e-------------------------------------     ----------------------------------|
B--77-5-7-5-5-79----77-5-7-5-5-79---5-     -77-5-7-5-5-79---77-5-7-5-5-7-----|
G-------------------------------------  x3 ----------------------------------|
D----------------9----------------9---     ---------------9--------------9-9-|
A-------------------------------------     ----------------------------------|
E-------------------------------------     ----------------------------------|

Chorus 2
e-------------------------------------------------------------------------|
B--77-5-7-5-5-79----77-5-7-5-5-79----1010999--5------1010999/121212121212-|
G-------------------------------------------------------------------------| x3
D----------------9----------------9---------------9-----------------------|
A-------------------------------------------------------------------------|
E-------------------------------------------------------------------------|

e---------------------------------|
B--77-5-7-5-5-79---------9-7-9-5--|
G---------------------------------|
D----------------9-7/999----------|
A---------------------------------|
E---------------------------------|

Solo/Break

e--5x400000000-(x2)---------------------------------------------------|
B-----------------------7x5x4444444444-(x2)--9x10x1200000000-(x3)-----|
G---------------------------------------------------------------------|
D---------------------------------------------------------------------|
A---------------------------------------------------------------------|
E---------------------------------------------------------------------|

e-------00000--5x400000000-(x2)----------------------------------------|
B-99999-77777-------------------7x5x44444444-(x2)-9x10x1200000000-(x2)-|
G-99999-99999----------------------------------------------------------|
D----------------------------------------------------------------------|
A----------------------------------------------------------------------|
E----------------------------------------------------------------------|

e----------------------------|
B--99-9-99-1010101010-99999--|
G--99-9-99-9-9-9-9-9--99999--|
D----------------------------|
A----------------------------|
E----------------------------|

Verse 3
e-------------------------------------     ----------------------------------|
B--77-5-7-5-5-79----77-5-7-5-5-79---5-     -77-5-7-5-5-79---77-5-7-5-5-7-----|
G-------------------------------------  x3 ----------------------------------|
D----------------9----------------9---     ---------------9--------------9-9-|
A-------------------------------------     ----------------------------------|
E-------------------------------------     ----------------------------------|

Chorus 3
e-------------------------------------------------------------------------|
B--77-5-7-5-5-79----77-5-7-5-5-79----1010999--5------1010999/121212121212-|
G-------------------------------------------------------------------------| x3
D----------------9----------------9---------------9-----------------------|
A-------------------------------------------------------------------------|
E-------------------------------------------------------------------------|

e---------------------------------|
B--77-5-7-5-5-79---------9-7-9-5--|
G---------------------------------|
D----------------9-7/999----------|
A---------------------------------|
E---------------------------------|

Outro - Not sure what he actually plays but this fits okay
e----------------------------------------------------------|
B----------------------------------------------------------|
G----------------------------------------------------------|  to the end
D-9999999999999999999999999999999999999999999999999999999--|
A-7777777777777777777777777777777777777777777777777777777--|
E-0000000000000000000000000000000000000000000000000000000--|
                       palm muted

Cheers
            
Submit corrections

↑ Back to top | Tablatures and chords for acoustic guitar and electric guitar, ukulele, drums are parodies/interpretations of the original songs. You may use it for private study, scholarship, research or language learning purposes only