Home » T » The Cribs »

The Cribs - Jaded Youth Tabs

Artists:  A B C D E F G H I J K L M N O P Q R S T U V W X Y Z # 

Jaded Youth Tabs

(Version #2)
The Cribs
[Intro]

e|--8---8---8---8---8---8-x--8--8--8-x-x--8---8---8---8---8-x--8--8--8-------|
B|-11--11--11--11--11--11-x-11-11-11-x-x-11--11--11--11--11-x-11-11-11-------|
G|-10--10--10--10--10--10-x-10-10-10-x-x-10--10--10--10--10-x-10-10-10-------| 
D|---------------------------------------------------------------------------|
A|---------------------------------------------------------------------------|
E|---------------------------------------------------------------------------|


[Verse 1]

e|--8---8---8---8---8---8-x--8--8--8-x--8---8---8---8---8---8-x-10-10-10-------|
B|-11--11--11--11--11--11-x-11-11-11-x-11--11--11--11--11--11-x-11-11-11-------|
G|-10--10--10--10--10--10-x-10-10-10-x-10--10--10--10--10--10-x-10-10-10-------| 
D|-----------------------------------------------------------------------------|
A|-----------------------------------------------------------------------------|
E|-----------------------------------------------------------------------------|

e|--8---8---8---8---8---8---8---8--6--6--6--6--6--6--6--6--------------------|
B|-10--10--10--10--10--10--10--10--8--8--8--8--8--8--8--8--------------------|
G|---------------------------------------------------------------------------|
D|---------------------------------------------------------------------------|
A|---------------------------------------------------------------------------|
E|---------------------------------------------------------------------------|

e|-5--5-5-5--5-5-5--5-5-5--5-5-6--6--6--6--6--6--6--6--8-8--6-6--5-5---8--8----|
B|-8--8-8-8--8-8-8--8-8-8--8-8-8--8--8--8--8--8--8--8--8-8--8-8--6-6--10-10----|
G|-----------------------------------------------------------------------------| 
D|-----------------------------------------------------------------------------|
A|-----------------------------------------------------------------------------|
E|-----------------------------------------------------------------------------|

 Play this twice, with the ending played like this 
leading into the chorus (*=tremolo)

e|-8--8-8--6--6-6--5-5---8--8--8--8--3*-3*-5*-|
B|-8--8-8--8--8-8--6-6--10-10-10-10-----------|
G|--------------------------------------------|
D|--------------------------------------------|
A|--------------------------------------------|
E|--------------------------------------------|
 

[Chorus]
                                         x2   then play chord with this after
e|-6-----------||--3-----5-----6-----8----||---------------------------------------|
B|-6-----------||----3-3---3-3---3-3------||---------------------------------------|
G|-7-----------||----------------------7--||------------------------6-6-6-6-6-6-6--|
D|-8-----------||-------------------------||---------------------------------------|
A|-8-----------||-------------------------||---------------------------------------|
E|-6-----------||-------------------------||---------------------------------------|


[Verse 2]

(same as Verse 1 but only played once with this on the end instead)

e|--8---8---8---8---8---8-x--8--8--8-x--8---8---8---8---8---8-x-10-10-10-------|
B|-11--11--11--11--11--11-x-11-11-11-x-11--11--11--11--11--11-x-11-11-11-------|
G|-10--10--10--10--10--10-x-10-10-10-x-10--10--10--10--10--10-x-10-10-10-------| 
D|-----------------------------------------------------------------------------|
A|-----------------------------------------------------------------------------|
E|-----------------------------------------------------------------------------|

e|--8---8---8---8---8---8---8---8--6--6--6--6--6--6--6--6--------------------|
B|-10--10--10--10--10--10--10--10--8--8--8--8--8--8--8--8--------------------|
G|---------------------------------------------------------------------------|
D|---------------------------------------------------------------------------|
A|---------------------------------------------------------------------------|
E|---------------------------------------------------------------------------|

e|-5--5-5-5--5-5-5--5-5-5--5-5-6--6--6--6--6--6--6--6--8-8--6-6--5-5---8--8----|
B|-8--8-8-8--8-8-8--8-8-8--8-8-8--8--8--8--8--8--8--8--8-8--8-8--6-6--10-10----|
G|-----------------------------------------------------------------------------| 
D|-----------------------------------------------------------------------------|
A|-----------------------------------------------------------------------------|
E|-----------------------------------------------------------------------------|

e|-8--8-8--6--6-6--3--5--6--3----------|
B|-8--8-8--8--8-8----------------------|
G|-------------------------------------|
D|-------------------------------------|
A|-------------------------------------|
E|-------------------------------------|


[Chorus 2]


                                         x2   then play chord with this after
e|-6-----------||--3-----5-----6-----8----||---------------------------------------|
B|-6-----------||----3-3---3-3---3-3------||---------------------------------------|
G|-7-----------||----------------------7--||------------------------7-7-7-7-7-7-7--|
D|-8-----------||-------------------------||---------------------------------------|
A|-8-----------||-------------------------||---------------------------------------|
E|-6-----------||-------------------------||---------------------------------------|

same as chorus 1 but the 6s at the end are 7s instead (hope this isn't too confusing...)
then play this leading into the break

I'm a ja-ded youth yeah 
e|---------------------------------------------------------------------------------|
B|---------------------------------------------------------------------------------|
G|-----7-10----12---10--5-5-5-5-5-5-5-5-7-7-7-7-7-7--7-7--7-6-6--6-5-5--5-5-5------|
D|---------------------------------------------------------------------------------|
A|---------------------------------------------------------------------------------|
E|---------------------------------------------------------------------------------|


[Break]

e|------------------------------------------------------------------------------------------------------|
B|------------------------------------------------------------------------------------------------------|
G|---10---------------------------10--------------7-8/12~-----10~-10~---10---12-10----------------------|
D|------10-10/12~--------------------10-10\8--7/8---------8-8----------8---8-------8-7-7-7-7-7--10~\\---|
A|-8-------------8-13-12-10-----8-----------------------------------------------------------------------|
E|---------------------------10~------------------------------------------------------------------------|
                          
In the mean time... 
e|------------------------------------------------------------------------------------------------------|
B|------------------------------------------------------------------------------------------------------|
G|---10---------------------------10--------------7-8/12-----10-----10-----12-10------------------------|
D|------10-10/12~--------------------10-10\8--7/8--------8-8----8-8----8-8-------8-7-7-7-7-7-7-7-7------|
A|-8--------------8-13-12-10----8-----------------------------------------------------------------------|
E|---------------------------10~------------------------------------------------------------------------|

e|------------------|
B|-11-11-10-10------|
G|-10-10-10-10------|
D|------------------|
A|------------------|
E|------------------|


[Chorus 3]

                                         x2   then play chord with this after
e|-6-----------||--3-----5-----6-----8----||---------------------------------------|
B|-6-----------||----3-3---3-3---3-3------||---------------------------------------|
G|-7-----------||----------------------7--||------------------------7-7-7-7-7-7-7--|
D|-8-----------||-------------------------||---------------------------------------|
A|-8-----------||-------------------------||---------------------------------------|
E|-6-----------||-------------------------||---------------------------------------|

 same as chorus 2 with this on the end 

I'm a ja-ded youth since I learned the truth yeaahhh
e|---------------------------------------------------------------------------|
B|---------------------------------------------------------------------------|
G|-----7-10---12-------14----15-----14--12---10--7-7-7-5-5-5-5-6-7~----------|
D|---------------------------------------------------------------------------|
A|---------------------------------------------------------------------------|
E|---------------------------------------------------------------------------|
            
Submit corrections

↑ Back to top | Tablatures and chords for acoustic guitar and electric guitar, ukulele, drums are parodies/interpretations of the original songs. You may use it for private study, scholarship, research or language learning purposes only