» » »

Stone Temple Pilots - Big Empty Bass

Artists:  A B C D E F G H I J K L M N O P Q R S T U V W X Y Z # 

Big Empty Bass

(ver. 2) Click to play this song!
Stone Temple Pilots
 Rating:
4.3/5 (10 votes)

 Big Empty lessons Tabs too difficult? Try these video lessons and learn fast
 
                INTRO:
            s s s         s s                   s s         s s s
G |---------------------------------|---------------------------------|
D |-------------5-------------------|---------------------------------|
A |-----------5---7-------5-7-5--\--|-3-----------3-3---------3-2-----|
E |-0-------7-----------------------|-----------3-----------3-----3---|
    1   &   2   &   3   &   4   &     1   &   2   &   3   &   4   &

            s s s         s s s                 s s     s s s s s 
G |---------------------------------|---------------------------------|
D |-------------5-------------------|-----------------------5-7---5v--|
A |-----------5---7---------7---5-\-|-3-----------3-3---3/7-----7-----|
E |-0-------7-------------7---7-----|-----------3---------------------|
    1   &   2   &   3   &   4   &     1   &   2   &   3   &   4   &


VERSE 1:
            s s s         s s                   s s         s s s
G |---------------------------------|---------------------------------|
D |-------------5-------------------|---------------------------------|
A |-----------5---7-------5-7-5--\--|-3-----------3-3---------3-2-----|
E |-0-------7-----------------------|-----------3-----------3-----3---|
    1   &   2   &   3   &   4   &     1   &   2   &   3   &   4   &

            s s s         s s                   s s     s s s   s
G |---------------------------------|---------------------------------|
D |-------------5-------------------|---------------------------------|
A |-----------5---7-------5-7-5--\--|-3-----------3-3-----------------|
E |-0-------7-----------------------|-----------3-------0-3/6-r-5-3---|
    1   &   2   &   3   &   4   &     1   &   2   &   3   &   4   &

            s s s         s s                   s s         s s s
G |---------------------------------|---------------------------------|
D |-------------5-------------------|---------------------------------|
A |-----------5---7-------5-7-5--\--|-3-----------3-3---------3-2-----|
E |-0-------7-----------------------|-----------3-----------3-----3---|
    1   &   2   &   3   &   4   &     1   &   2   &   3   &   4   &

            s s s         s s s                 s s     s    s s
G |---------------------------------|---------------------------------|
D |-------------5-------------------|---------------------------------|
A |-----------5---7---------7---5-\-|-3-----------3-3-----3---3-2-0---|
E |-0-------7-------------7---7-----|-----------3-------3-------------|
    1   &   2   &   3   &   4   &     1   &   2   &   3   &   4   &


CHORUS 1:
              s       s     s s s s              s        s      s s
G |---------------------------------|--------------------------------------|
D |---------------------7---7-------|---------------10-------10--10-9------|
A |-----------5-0-----7-------7-0-2-|-3---/-10---10-------10----------10-\-|
E |-3----/7-------------------------|--------------------------------------|
    1   &   2   &   3   &   4   &     1   &    2    &   3    &   4    &

    s s s     s s s s     s s s s s             s           s s s
G |---------------------------------|---------------------------------|
D |-------5-----------7-----7---5-0-|---------------------------------|
A |---2-5-----5-0-4-7-----7---7-----|-3-----2---2-3-----5-----3-2-0---|
E |-3-------------------------------|-----------------------3---------|
    1   &   2   &   3   &   4   &     1   &   2   &   3   &   4   &

              s       s     s s s s              s             s  s  s
G |---------------------------------|---------------------------------------|
D |---------------------7---7-------|---------------10---/12------10-9------|
A |-----------5-0-----7-------7-0-2-|-3---/-10---10------------10------10-\-|
E |-3----/7-------------------------|---------------------------------------|
    1   &   2   &   3   &   4   &     1   &    2    &   3    &    4    &

    s s s     s s s s     s s s           s     s           s s s
G |---------------------------------|---------------------------------|
D |-------5-----------7-----7-------|---------------------------------|
A |---2-5-----5-0-4-7-----7---7-5---|-3---2-2---2-3----/5-----3-2-0---|
E |-3-------------------------------|-----------------------3---------|
    1   &   2   &   3   &   4   &     1   &   2   &   3   &   4   &

                  s
G |---------------------------------|---------------------------------|
D |---------------------------------|---------------------------------|
A |---------------------------------|---------------------------------|
E |-3-------3-----3-1---3---r---0---|(0)----------------------2-/-/-/-|
    1   &   2   &   3   &   4   &     1   &   2   &   3   &   4   &


PRE—VERSE:
    s s s s   s             s s               s s s         s s                  s  s          s  s
G |---------------------------------|---------------------------------|------------------------17r------|
D |-----5-7-r---5-----------5-5-7-\-|-------------5-------------------|------------------------17r------|
A |-3/7-------7---------------------|-----------5---7-------5-7-5---\-|-3-----------3-3---3-/-----X-----|
E |---------------------------------|-0-------7-----------------------|-----------3-----------------12\-|
    1   &   2   &   3   &   4   &     1   &   2   &   3   &   4   &     1   &   2   &   3   &   4   &
                           

VERSE 2:
            s s s         s s                   s s         s s s
G |---------------------------------|---------------------------------|
D |-------------5-------------------|---------------------------------|
A |-----------5---7-------5-7-5--\--|-3-----------3-3---------3-2-----|
E |-0-------7-----------------------|-----------3-----------3-----3---|
    1   &   2   &   3   &   4   &     1   &   2   &   3   &   4   &

            s s s         s s                   s s     s s s   s
G |---------------------------------|---------------------------------|
D |-------------5-------------------|---------------------------------|
A |-----------5---7---------7---5-\-|-3-----------3-3-----------------|
E |-0-------7-------------7---7-----|-----------3-------0-3/6-r-5-3---|
    1   &   2   &   3   &   4   &     1   &   2   &   3   &   4   &

            s s s         s s                   s s         s s s
G |---------------------------------|---------------------------------|
D |-------------5-------------------|---------------------------------|
A |-----------5---7-------5-7-5--\--|-3-----------3-3---------3-2-----|
E |-0-------7-----------------------|-----------3-----------3-----3---|
    1   &   2   &   3   &   4   &     1   &   2   &   3   &   4   &

            s s s           s s s               s s     s     s s
G |---------------------------------|---------------------------------|
D |-------------5-------------------|---------------------------------|
A |-----------5---7---------5-7-5-\-|-3-----------3-3-----3---3-2-0---|
E |-0-------7-----------------------|-----------3-------3-------------|
    1   &   2   &   3   &   4   &     1   &   2   &   3   &   4   &


CHORUS 2:
              s       s     s s s s              s        s       s  s
G |---------------------------------|---------------------------------------|
D |---------------------7---7-------|---------------10-------10---10-9------|
A |-----------5-0-----7-------7-0-2-|-3---/-10---10-------10-----------10-\-|
E |-3----/7-------------------------|---------------------------------------|
    1   &   2   &   3   &   4   &     1   &    2    &   3    &    4    &

    s s s     s s s s     s s s s s             s           s s s
G |---------------------------------|---------------------------------|
D |-------5-----------7-----7---5-0-|---------------------------------|
A |---2-5-----5-0-4-7-----7---7-----|-3-----2---2-3-----5-----3-2-0---|
E |-3-------------------------------|-----------------------3---------|
    1   &   2   &   3   &   4   &     1   &   2   &   3   &   4   &

              s       s     s s s s              s        s       s s
G |---------------------------------|---------------------------------------|
D |---------------------7---7-------|---------------10------/12---10-9------|
A |-----------5-0-----7-------7-0-2-|-3---/-10---10-------10-----------10-\-|
E |-3----/7-------------------------|---------------------------------------|
    1   &   2   &   3   &   4   &     1   &    2    &   3    &    4    &

    s s s     s s s s     s s s                 s       s s s s s s s
G |---------------------------------|---------------------------------|
D |-------5-----------7-----7-------|---------------------------------|
A |---2-5-----5-0-4-7-----7---7-5---|-3-----2---2-3-------------------|
E |-3-------------------------------|-------------------0-0-0-1-1-2-2-|
    1   &   2   &   3   &   4   &     1   &   2   &   3   &   4   &


BRIDGE:
                  s                         s s s s     s s s s s
G |---------------------------------|---------------------------------|
D |---------------------------------|---------------------------------|
A |---------------------------------|---------7-5---5-----------------|
E |-3-------3-----3-1---3---r---0---|(0)----0-----7-----7-6-5-3-5-3---|
    1   &   2   &   3   &   4   &     1   &   2   &   3   &   4   &
 
                  s                         s s s s     s     s s 
G |---------------------------------|---------------------------------|
D |---------------------------------|---------------------------------|
A |---------------------------------|-------------5-7---------5-------|
E |-3-------3-----3-1---3---r---0---|(0)----0-5-7-------0-7-5---7-5---|
    1   &   2   &   3   &   4   &     1   &   2   &   3   &   4   &

                  s                         s s s s     s s s s s s s
G |---------------------------------|---------------------------------|
D |---------------------------------|---------------------------------|
A |---------------------------------|--------------------ls-5---------|
E |-3-------3-----3-1---3---r---0---|(0)----0-5-3-0-3---5/7---8-7-5-4-|
    1   &   2   &   3   &   4   &     1   &   2   &   3   &   4   &

                  s
G |---------------------------------|---------------------------------|
D |---------------------------------|---------------------------------|
A |---------------------------------|---------------------------------|
E |-3-------3-----3-1---3---r---0---|(0)------------------------------|
    1   &   2   &   3   &   4   &     1   &   2   &   3   &   4   &


INTERLUDE:
                              s s s     s  s s s s s s s s s
G |-----------------------------9-11-|-12-11-9-7---7---------------------|
D |---------------------------9------|----------/9---9\5/8---------------|
A |----------------------------------|---------------------8-10v---------|
E |-r--------------------------------|----------------------------10-\---|
    1   &   2   &   3   &   4   &      1     &   2   &   3    &  4   &

    s s s s     s s s s           s   s s s s     s s s s   s s s s s 
G |---------------------------------|---------------------------------|
D |---------------------------------|-----------------------------5---|
A |-7-7---5-r---7-7---5-r-----------|-7-7---5-r---7-7---5-r-----5---5—|
E |-----7-----------7-------------7-|-----7-----------7-----5-7-------|
    1   &   2   &   3   &   4   &     1   &   2   &   3   &   4   &

    s s s s     s s s s           s   s s s s     s s s s   s s s s s 
G |---------------------------------|---------------------------------|
D |---------------------------------|-----------------------------5---|
A |-7-7---5-r---7-7---5-r-----------|-7-7---5-r---7-7---5-r-----5---5—|
E |-----7-----------7-------------7-|-----7-----------7-----5-7-------|
    1   &   2   &   3   &   4   &     1   &   2   &   3   &   4   &

    s s s s     s s s s   s s s s s   s s s s   s s s s s s s s s
G |---------------------------------|---------------------------------|
D |-----------------------------5---|---------------------------------|
A |-7-7---5-r---7-7---5-r-----5---5-|-7-7---5-r-5-7-7---5-7-7-7-5-----|
E |-----7-----------7-----5-7-------|-----7-----------7-----------7-\-|
    1   &   2   &   3   &   4   &     1   &   2   &   3   &   4   &


CHORUS 3:
              s       s     s s s s              s        s      s s
G |---------------------------------|--------------------------------------|
D |---------------------7---7-------|---------------10-------10--10-9------|
A |-----------5-0-----7-------7-0-2-|-3---/-10---10-------10----------10-\-|
E |-3----/7-------------------------|--------------------------------------|
    1   &   2   &   3   &   4   &     1   &    2    &   3    &   4    &

    s s s     s s s s     s s s s s             s           s s s
G |---------------------------------|---------------------------------|
D |-------5-----------7-----7---5-0-|---------------------------------|
A |---2-5-----5-0-4-7-----7---7-----|-3-----2---2-3-----5-----3-2-0---|
E |-3-------------------------------|-----------------------3---------|
    1   &   2   &   3   &   4   &     1   &   2   &   3   &   4   &

              s       s     s s s s              s             s  s  s
G |---------------------------------|---------------------------------------|
D |---------------------7---7-------|---------------10---/12------10-9------|
A |-----------5-0-----7-------7-0-2-|-3---/-10---10------------10------10-\-|
E |-3----/7-------------------------|---------------------------------------|
    1   &   2   &   3   &   4   &     1   &    2    &   3    &    4    &

    s s s     s s s s     s s s                 s           s s s
G |---------------------------------|---------------------------------|
D |-------5-----------7-----7-------|---------------------------------|
A |---2-5-----5-0-4-7-----7---7-5---|-3-----2---2-3----/5-----3-2-0---|
E |-3-------------------------------|-----------------------3---------|
    1   &   2   &   3   &   4   &     1   &   2   &   3   &   4   &


OUTRO:
                  s                         s s s s     s s s s s
G |---------------------------------|---------------------------------|
D |---------------------------------|---------------------------------|
A |---------------------------------|---------7-5---5-----------------|
E |-3-------3-----3-1---3---r---0---|(0)----0-----7-----7-6-5-3-5-3---|
    1   &   2   &   3   &   4   &     1   &   2   &   3   &   4   &
 
                  s                         s s s s     s s s s s 
G |---------------------------------|---------------------------------|
D |---------------------------------|---------------------------------|
A |---------------------------------|-------------5-7---------5-------|
E |-3-------3-----3-1---3---r---0---|(0)----0-5-7-------0-7-5---7-5---|
    1   &   2   &   3   &   4   &     1   &   2   &   3   &   4   &

                  s                         s s s s     s s s s s s s
G |---------------------------------|---------------------------------|
D |---------------------------------|---------------------------------|
A |---------------------------------|--------------------ls-5---------|
E |-3-------3-----3-1---3---r---0---|(0)----0-5-3-0-3---5/7---8-7-5-4-|
    1   &   2   &   3   &   4   &     1   &   2   &   3   &   4   &

                  s
G |---------------------------------|---------------------------------|
D |---------------------------------|---------------------------------|
A |---------------------------------|---------------------------------|
E |-3-------3-----3-1---3---r---0---|(0)------------------------------|
    1   &   2   &   3   &   4   &     1   &   2   &   3   &   4   &

            
Submit corrections


        Big Empty lessons Hard to play? Try these video lessons and learn fast Big Empty lessons
        
↑ Back to top | Tablatures and chords for acoustic guitar and electric guitar, ukulele, drums are parodies/interpretations of the original songs. You may use it for private study, scholarship, research or language learning purposes only