» » »

Stone Temple Pilots - Dead & Bloated Tabs

Artists:  A B C D E F G H I J K L M N O P Q R S T U V W X Y Z # 

Dead & Bloated Tabs

(ver. 1) Click to play this song!
Stone Temple Pilots
 Rating:
4/5 (4 votes)

 Dead & Bloated lessons Tabs too difficult? Try these video lessons and learn fast
 
                
  S T E E L  -  2  -  T H E  -  C O R E

/===\ 
*KEY* 
\===/ 
/       Slide up 
\       Slide down 
P.M.    Palm muting 

/======================\ 
*STANDARD TUNING METHOD* 
\======================/ 

VERSE RIFF 

"I am smellin' like the rose that somebody gave me...." 

                                                    grad. 1/4   grad. 1/4 
e--------------------------------------------------------(-----------(---- 
B--------------------------------------------------------(-----------(---- 
G--------------------------------------------------------(-----------(---- 
D-0---0------6\5\3/5\3-0---0----6\5\3/5\3-0---0----6\5\3/5-----6\5\3/5---- 
A-0---0------6\5\3/5\3-0---0----6\5\3/5\3-0---0----6\5\3/5-----6\5\3/5---- 
E------------------------------------------------------------------------- 

e------------------------------------------------------------------------ 
B------------------------------------------------------------------------ 
G------------------------------------------------------------------------ 
D---6\5\3/5\3-0---0------------------------------------------------------ 
A---6\5\3/5\3-0---0------------------------------------------------------ 
E------------------------------------------------------------------------ 

CHORUS 1 RIFF 

"Ohhh, yeah...." 
                            P.M.------------| 
e------------------------------------------------------------------------ 
B------------------------------------------------------------------------ 
G--4----4---------------------------------------------------------------- 
D--4----4--5-----5--5----2--2-2-2--2-2--2-2-2---------------------------- 
A--2----2--5-----5--5----2--2-2-2--2-2--2-2-2---------------------------- 
E----------3-----3--3----0--0-0-0--0-0--0-0-0---------------------------- 

"You can't swallow what I'm thinkin'...." 

 P.M.-----------------------------| 
e------------------------------------------------------------------------ 
B------------------------------------------------------------------------ 
G------------------------------------------------------------------------ 
D--4-4-4-4-4-4-4-4-4-4-4-4-4-4-4-4--------------------------------------- 
A--4-4-4-4-4-4-4-4-4-4-4-4-4-4-4-4--------------------------------------- 
E--2-2-2-0-2-2-2-0-2-0-2-0-2-0-2-0--------------------------------------- 

CHORUS 2 RIFF 

"I run through the world thinkin' 'bout tomorrow...." 
                                   P.M.---| 
e------------------------------------------------------------------------ 
B------------------------------------------------------------------------ 
G--4------(0)------------------------------------------------------------ 
D--4\---3--2-------5\---2--5\---2--2-2-2-2-5\---2--5\---2--2-2-2-2------- 
A--2------(2)------5\---2--5\---2--2-2-2-2-5\---2--5\---2--2-2-2-2------- 
E------------------3\---0--3\---0--0-0-0-0-3\---0--3\---0--0-0-0-0------- 

 P.M.-----------------------------| 
e------------------------------------------------------------------------ 
B------------------------------------------------------------------------ 
G------------------------------------------------------------------------ 
D--4-4-4-4-4-4-4-4-4-4-4-4-4-4-4-4--------------------------------------- 
A--4-4-4-4-4-4-4-4-4-4-4-4-4-4-4-4--------------------------------------- 
E--2-2-2-0-2-2-2-0-2-0-2-0-2-0-2-0--------------------------------------- 

/=======================\ 
*DROPPED D TUNING METHOD* 
\=======================/ 

VERSE RIFF 

"I am smellin' like the rose that somebody gave me...." 

                                                    grad. 1/4   grad. 1/4 
e--------------------------------------------------------(-----------(---- 
B--------------------------------------------------------(-----------(---- 
G--------------------------------------------------------(-----------(---- 
D-0---0------6\5\3/5\3-0---0----6\5\3/5\3-0---0----6\5\3/5-----6\5\3/5---- 
A-0---0------6\5\3/5\3-0---0----6\5\3/5\3-0---0----6\5\3/5-----6\5\3/5---- 
E-0---0------6\5\3/5\3-0---0----6\5\3/5\3-0---0----6\5\3/5-----6\5\3/5---- 

e------------------------------------------------------------------------ 
B------------------------------------------------------------------------ 
G------------------------------------------------------------------------ 
D---6\5\3/5\3-0---0------------------------------------------------------ 
A---6\5\3/5\3-0---0------------------------------------------------------ 
E---6\5\3/5\3-0---0------------------------------------------------------ 

CHORUS 1 RIFF 

"Ohhh, yeah...." 
                            P.M.------------| 
e------------------------------------------------------------------------ 
B------------------------------------------------------------------------ 
G--4----4---------------------------------------------------------------- 
D--4----4--5-----5--5----2--2-2-2--2-2--2-2-2---------------------------- 
A--2----2--5-----5--5----2--2-2-2--2-2--2-2-2---------------------------- 
E----------5-----5--5----2--2-2-2--2-2--2-2-2---------------------------- 

"You can't swallow what I'm thinkin'...." 

 P.M.-----------------------------| 
e------------------------------------------------------------------------ 
B------------------------------------------------------------------------ 
G------------------------------------------------------------------------ 
D--4-4-4-2-4-4-4-2-4-2-4-2-4-2-4-2--------------------------------------- 
A--4-4-4-2-4-4-4-2-4-2-4-2-4-2-4-2--------------------------------------- 
E--4-4-4-2-4-4-4-2-4-2-4-2-4-2-4-2--------------------------------------- 

CHORUS 2 RIFF 

"I run through the world thinkin' 'bout tomorrow...." 
                                   P.M.---| 
e------------------------------------------------------------------------ 
B------------------------------------------------------------------------ 
G--4------(0)------------------------------------------------------------ 
D--4\---3--2-------5\---2--5\---2--2-2-2-2-5\---2--5\---2--2-2-2-2------- 
A--2------(2)------5\---2--5\---2--2-2-2-2-5\---2--5\---2--2-2-2-2------- 
E------------------5\---2--5\---2--2-2-2-2-5\---2--5\---2--2-2-2-2------- 

P.M.-----------------------------| 
e------------------------------------------------------------------------ 
B------------------------------------------------------------------------ 
G------------------------------------------------------------------------ 
D--4-4-4-2-4-4-4-2-4-2-4-2-4-2-4-2--------------------------------------- 
A--4-4-4-2-4-4-4-2-4-2-4-2-4-2-4-2--------------------------------------- 
E--4-4-4-2-4-4-4-2-4-2-4-2-4-2-4-2--------------------------------------- 

/======\ 
*LYRICS* 
\======/ 

I am smellin' like the rose 
That somebody gave me 
On my birthday deathbed 
I am smellin' like the rose 
That somebody gave me 
'cause I'm dead & bloated 

Yeah, and she says it's natural 
I feel I've come of age 
When she peeks I start to run 

You can't swallow what I'm thinkin' 
You can't swallow what I'm thinkin' 

I run through the world 
Thinkin' 'bout tomorrow 

I am trampled under sole of 
Another man's shoes 
Guess I walked to softly 
            
Submit corrections


        Dead & Bloated lessons Hard to play? Try these video lessons and learn fast Dead & Bloated lessons
        
↑ Back to top | Tablatures and chords for acoustic guitar and electric guitar, ukulele, drums are parodies/interpretations of the original songs. You may use it for private study, scholarship, research or language learning purposes only