» » »

Stone Temple Pilots - Sex Type Thing Tabs

Artists:  A B C D E F G H I J K L M N O P Q R S T U V W X Y Z # 

Sex Type Thing Tabs

(ver. 1) Click to play this song!
Stone Temple Pilots
 Rating:
4/5 (4 votes)

 Sex Type Thing lessons Tabs too difficult? Try these video lessons and learn fast
 
                "By Stone Temple Pilots 

Standard Tunning 


E------------------------------------------------------------------- 
B------------------------------------------------------------------- 
G----------4------------3------------2--------------0---------0----- 
D---2------------2------------2--------------2---------------------- 
A------------------------------------------------------------------- 
E---0------7-----0------6-----0------5-------0------3---------3----- 
                                                    ~~~~~~~~~~ 


E------------------------------0------------0---------0---------0--- 
B--------------------0----0-------0-----0------0----0----0---0-----0 
G---2-----0--------------------------------------------------------- 
D---------------2--------------------------------------------------- 
A------------------------------------------------------------------- 
E---5-----3-----0--------------------------------------------------- If I messed up or you want 
to request songs (which I will 
probably do), then E-Mail me. 

Dan Joyce 
"            
Submit corrections


        Sex Type Thing lessons Hard to play? Try these video lessons and learn fast Sex Type Thing lessons
        
↑ Back to top | Tablatures and chords for acoustic guitar and electric guitar, ukulele, drums are parodies/interpretations of the original songs. You may use it for private study, scholarship, research or language learning purposes only