» » »

Stone Temple Pilots - Big Bang Baby Tabs

Artists:  A B C D E F G H I J K L M N O P Q R S T U V W X Y Z # 

Big Bang Baby Tabs

(ver. 1) Click to play this song!
Stone Temple Pilots
 Rating:
4/5 (10 votes)

 Big Bang Baby lessons Tabs too difficult? Try these video lessons and learn fast
 
                

/ slide up
\ slide down
b bend
r release bend
h hammer on
p pull off


Standard Tuning


----------|------------------------------------------------|------------------|
----------|------------------------------------------------|------------------|
----------|------------------------------------------------|------------------|
----------|-x—-x--x—-x—-x--x--7--6--5--5--4--3--x--x--x--x-|------------------|
----------|-2--2--5--6--7--7--5--4--3--3--2--1--5--5--7--9-|------------------|
----------|-0--0--3--4--5--5--x--x--x--x--x--x--3--3--5--7-|------------------|
   verse

----------|-------------------------------------------------|-----------------|
----------|-------------------------------------------------|-----------------|
----------|-------------------------------------------------|-----------------|
----------|-x--x--x--x--x--x--7--6--5--5--4--3--5--8--x--5--|-----------------|
----------|-2--2--5--6--7--7--5--4--3--3--2--1--3--6--7--3--|-----------------|
----------|-0--0--3--4--5--5--x--x--x--x--x--x--x--x--5--x--|-----------------|
   verse out

----------------|----------------------------------------------0------0-------|
----------------|----------------------------------------------x------x-------|
----------------|----------------------------------------------1b2r1--1b2r1---|
----------------|--5--5--5--5--5--5--2----2--2--2--2--2--2--2-----------------|
----------------|--3--3--3--3--3--3--0----0--0--0--0--0--0--0-----------------|
----------------|--x--x--x--x--x--x--x----x--x--x--x--x--x--x-----------------|
          Chorus

-0------0------0------0------0-----0---0-------------------------------------|
-x------x------x------x------x-----x---x-------------------------------------|
-1b2r1--1b2r1--1b2r1--1b2r1--1b2r1-1br-1-------------------------------------|
-----------------------------------------5---5--5--5--5--5--5--7----7--7--7--|
-----------------------------------------3---3--3--3--3--3--3--5----5--5--5--|
-----------------------------------------x---x--x--x--x--x--x--x----x--x--x--|


--------------0----0----0---0----0---0----0----0---0----0-----|----------------|
--------------x----x----x---x----x---x----x----x---x----x-----|----------------|
--------------2b4--2b4--2b4-2b4--2b4-2b4--2b4--2b4-2b4--2b4r2-|----------------|
--7--7--7--7--------------------------------------------------|----------------|
--5--5--5--5--------------------------------------------------|----------------|
--x--x--x--x--------------------------------------------------|----------------|


-------------|-x-----x-----x---x---x---x------x--x----x--x--x--x---|--|-x----|
-------------|-12----12----12--12--12--13-----13-13---13-13-13-13--|--|-13---|
-------------|-13----13----13--13--13--12-----12-12---12-12-12-12--|--|-14---|
-------------|-----------------------------------------------------|2x|------|
-------------|-----------------------------------------------------|--|------|
-------------|-----------------------------------------------------|--|------|
   Interlude

--x-----x---x---x---x-----x---x---x------x--x---|--------------------------|---|
--13----13--13--13--15----15--15--13-----13-13--|--------------------------|---|
--14----14--14--14--14----14--14--14-----14-14--|--------------------------|---|
------------------------------------------------|--------------------------|---|
------------------------------------------------|--------------------------|---|
------------------------------------------------|--------------------------|---|


---------------|-x-----x-----x---x---x---x-----x---x---x-----x---x---x-----|--|
---------------|-12----12----12--12--12--12----12--12--12----12--12--12----|--|
---------------|-13----13----13--13--13--13----13--13--13----13--13--13----|--|
---------------|-----------------------------------------------------------|--|
---------------|-----------------------------------------------------------|--|
---------------|-----------------------------------------------------------|--|
  interlude out

---------------|---------------------------------------|----------------------|
---------------|---------------------------------------|----------------------|
---------------|---------------------------------------|----------------------|
---------------|-x--x--x--x--x--x--7--6--5--5----------|----------------------|
---------------|-2--2--5--6--7--7--5--4--3--3----------|----------------------|
---------------|-0--0--3--4--5--5--x--x--x--x----------|----------------------|
outro
            
Submit corrections


        Big Bang Baby lessons Hard to play? Try these video lessons and learn fast Big Bang Baby lessons
        
↑ Back to top | Tablatures and chords for acoustic guitar and electric guitar, ukulele, drums are parodies/interpretations of the original songs. You may use it for private study, scholarship, research or language learning purposes only