» » »

Staind - Something To Remind You Tabs

Artists:  A B C D E F G H I J K L M N O P Q R S T U V W X Y Z # 

Something To Remind You Tabs

(ver. 5) Click to play this song!
Staind
 Rating:
4.3/5 (10 votes)

 Something To Remind You lessons Tabs too difficult? Try these video lessons and learn fast
 
                [Intro]X1
A#|----7---7---7---7---7---7|---5---5---5---5---5---5|---8---8---8---8---8---8|---5---5---5-7-5--------------|
F#|------7---7-------7---7--|-----7---7-------7---7--|-----7---7-------7---7--|-----6---6-------7-6----------|
C#|-/9-----------9----------|-7-----------7----------|-5-----------5----------|-4----------------------------|
G#|-------------------------|------------------------|------------------------|------------------------------|
C#|-------------------------|------------------------|------------------------|------------------------------|
G#|-------------------------|------------------------|------------------------|------------------------------|

[Verse]X2
A#|----7---7---7---7---7---7|---5---5---5---5---5---5|---8---8---8---8---8---8|---5---5---5-7-5--------------|
F#|------7---7-------7---7--|-----7---7-------7---7--|-----7---7-------7---7--|-----6---6-------7-6----------|
C#|-/9-----------9----------|-7-----------7----------|-5-----------5----------|-4----------------------------|
G#|-------------------------|------------------------|------------------------|------------------------------|
C#|-------------------------|------------------------|------------------------|------------------------------|
G#|-------------------------|------------------------|------------------------|------------------------------|

[Pre Chorus]
A#|---8---8---8---8---8---8|------------------------|------------------------|---5---5---5-7-5---------|
F#|-----7---7-------7---7--|---7---7---7---7---7---7|---4---4---4---4---4---4|-----6---6-------7-6-----|
C#|-5-----------5----------|-----7---7-------7---7--|-----5---5-------5---5--|-4-----------------------|
G#|------------------------|-5-----------5----------|-7-----------7----------|-------------------------|
C#|------------------------|------------------------|------------------------|-------------------------|
G#|------------------------|------------------------|------------------------|-------------------------|

[Chorus]
A#|---------------------------------|-------------------------------|----------------------------------------|
F#|---------------------------------|-------------------------------|----------------------------------------|
C#|---9-----11-----12-----12---12-11|--7-----9-----12-----12---12-11|---5-----7-----9-----9---9-7------------|
G#|-----9------9------9------9------|----7-----7------7------7------|-----5-----5-----5-----5----------------|
C#|-9-----9------9------9-----------|-7----7-----7------7-----------|-5-----5-----5-----5--------------------|
G#|---------------------------------|-------------------------------|----------------------------------------|

A#|----------------------------------|------------|------------------|
F#|----------------------------------|------------|End Chorus like---|
C#|-5/7-7-----9-----12-----12---12-11|/9-to repeat|-5/7-7----9-5-----|
G#|-5/7---7-----7------7------7------|/9----------|-5/7---7----5-----|
C#|-5/7-----7-----7------7-----------|/9----------|-5/7----7---5-----|
G#|----------------------------------|------------|------------------|

[Guitar Solo One]
A#|-----12-12----12-15-14|---10-10---10-15-14|---8-8---8-15-14|---7-7-15-14-12--------------------|
F#|-/11-------11---------|-9-------9---------|-7-----7--------|-6--------------14-16--------------|
C#|----------------------|-------------------|----------------|-----------------------------------|
G#|----------------------|-------------------|----------------|-----------------------------------|
C#|----------------------|-------------------|----------------|-----------------------------------|
G#|----------------------|-------------------|----------------|-----------------------------------|

[Guitar Solo Two]
A#|-------------------~--|-12-12-12-12p10-10-------------------14h15-15-15-12-14-14h15-15-15-12--------------|
F#|----7-9-9b10r9-7---7--|-------------------12-12/14-12-11-12----------------------------------14-14/16-----|
C#|-/9--------------9----|-----------------------------------------------------------------------------------|
G#|----------------------|-----------------------------------------------------------------------------------|
C#|----------------------|-----------------------------------------------------------------------------------|
G#|----------------------|-----------------------------------------------------------------------------------|

[Outro]
A#|----7---7---7---7---7---7|---5---5---5---5---5---5|---8---8---8---8---8---8|---5---5---5-7-5--------------|
F#|------7---7-------7---7--|-----7---7-------7---7--|-----7---7-------7---7--|-----6---6-------7-6----------|
C#|-/9-----------9----------|-7-----------7----------|-5-----------5----------|-4----------------------------|
G#|-------------------------|------------------------|------------------------|------------------------------|
C#|-------------------------|------------------------|------------------------|------------------------------|
G#|-------------------------|------------------------|------------------------|------------------------------|

A#|----7---7---7---7---7---7|---5---5---5---5---5---5|---8---8---8---8---8---8|---5---5---5-7-5-----7--------|
F#|------7---7-------7---7--|-----7---7-------7---7--|-----7---7-------7---7--|-----6---6-------7-6-7--------|
C#|-/9-----------9----------|-7-----------7----------|-5-----------5----------|-4-------------------9--------|
G#|-------------------------|------------------------|------------------------|------------------------------|
C#|-------------------------|------------------------|------------------------|------------------------------|
G#|-------------------------|------------------------|------------------------|------------------------------|
            
Submit corrections


        Something To Remind You lessons Hard to play? Try these video lessons and learn fast Something To Remind You lessons
        
↑ Back to top | Tablatures and chords for acoustic guitar and electric guitar, ukulele, drums are parodies/interpretations of the original songs. You may use it for private study, scholarship, research or language learning purposes only