» » »

Staind - Staind - So Far Away Tabs

Artists:  A B C D E F G H I J K L M N O P Q R S T U V W X Y Z # 

Staind - So Far Away Tabs

(ver. 1) Click to play this song!
Staind
 Rating:
4/5 (4 votes)

 Staind - So Far Away lessons Tabs too difficult? Try these video lessons and learn fast
 
                
Gtr. I     Mike Mushok Clean
Gtr. II    Mike Mushok Distorted (Rhythm)
Gtr. III   Mike Mushok Distorted (Lead)
Gtr. IV    Strings Arranged For Guitar
Gtr. IV    Aaron Lewis Acoustic



   Intro/Verses:                        D
   Gtr. I
Bb|--12-----------12-13-----------13-15---------------10------------------|
Gb|------12----12--------12----12--------12----12---------11--12----------|
Db|---------14--------------14--------------12----------------------------|
Ab|-----------------------------------------------------------------------|
Db|-----------------------------------------------------------------------|
Ab|-----------------------------------------------------------------------|
  |                                     
  |Gtr. V                               E
  |  Em7              Cadd9           G5        D5 
  |
Eb|-----------3---3----------3---3-----------3---3-----2----2h3-----------|
Bb|-----------3---3----------3---3-----------3---3-----3------------------|
Gb|--0----------0-----0--------0------0--------0-------2------------------|
Db|--2----------------2---------------0----------------0------------------|
Ab|--2----------------3---------------x-----------------------------------|
Eb|--0--------------------------------3-----------------------------------|
  |  
  |                                     S
  |Gtr. I
Bb|--12-----------12-13-----------13-15---------------22--19--------------|
Gb|------12----12--------12----12--------12----12-------------19----------|
Db|---------14--------------14--------------12----------------------------|
Ab|-----------------------------------------------------------------------|
Db|-----------------------------------------------------------------------|
Ab|-----------------------------------------------------------------------|
  |   
  |Gtr. V                               H
  |  Em7              Cadd9           G5        D5 
  |
Eb|-----------3---3----------3---3-----------3---3-----2----2h3-----------|
Bb|-----------3---3----------3---3-----------3---3-----3------------------|
Gb|--0----------0-----0--------0------0--------0-------2------------------|
Db|--2----------------2---------------0----------------0------------------|
Ab|--2----------------3---------------x-----------------------------------|
Eb|--0--------------------------------3-----------------------------------|
  |
  |                                     A
  |Pre-Chorus:
  |Gtr. I
Bb|--13-----------13-13-----------13-13---------------13------------------|
Gb|------12----12--------12----12--------12----12-----12------------------|
Db|---------14--------------14--------------14--------14------------------|
Ab|-----------------------------------------------------------------------|
Db|-----------------------------------------------------------------------|
Ab|-----------------------------------------------------------------------|
  |                   
  |Gtr. V                               N
  |  Cadd9        D5   
Eb|-----------3---3----------3---3-----------3---3-----2----2-2-2---------|
Bb|-----------3---3----------3---3-----------3---3-----3----3-3-3---------|
Gb|--0----------0-----0--------0------0--------0-------2----2-2-2---------|
Db|--2----------------2---------------2----------------0----0-0-0---------|
Ab|--3----------------3---------------3-----------------------------------|
Eb|-----------------------------------------------------------------------|
  |
  |
  |Chorus:                              N
  |Gtr. II
Bb|-----------------------------------------------------------------------|
Gb|-----------------------------------------------------------------------|
Db|--5------------------0------------------2------------------------------|
Ab|--5------------------0------------------2-----------------(3)----------|
Db|--5------------------0------------------2------------------5-----------|
Ab|-----------------------------------------------------------3-----------|
  |                                     A 
  |Gtr. III   
Bb|-----8---7---5-------------3---5---3----5------------------------------|
Gb|-----x---x---x-------------x---x---x----x------------------5-----------|
Db|-----5---4---2-------------0---2---0----2------------------x-----------|
Ab|-----------------------------------------------------------3-----------|
Db|-----------------------------------------------------------------------|
Ab|-----------------------------------------------------------------------|
  |   
  |Gtr. V                               
  |  G5 D5   Em7      Cadd9   
Eb|--3------------------2------------------3-------------------3----------|
Bb|--3------------------3------------------3-------------------3----------|
Gb|--0------------------2-----------------(0)------------------0----------|
Db|--0------------------0------------------2-------------------2----------|
Ab|--x-----------------(0)-----------------2-------------------3----------|
Eb|--3-------------------------------------0------------------------------|
  |
  |
  |Bridge:
  |Gtr. II
Bb|--------------------------------------------------------------------------|
Gb|--------------------------------------------------------------------------|
Db|--------------------------------------------------------------------------|
Ab|-(3)----------------(5)----------------(7)---------------(10)-------------|
Db|--5------------------7------------------9-----------------12--------------|
Ab|--3------------------5------------------7-----------------10--------------|
  |      
  |Gtr. IV      
Bb|--8-----7------------8-----7------------8-----7------------8-----7--------|
Gb|--x-----x-----7------x-----x-----7------x-----x-----7------x-----x-----7--|
Db|--5-----4-----x------5-----4-----x------5-----4-----x------5-----4-----x--|
Ab|--------------5------------------5------------------5------------------5--|
Db|--------------------------------------------------------------------------|
Ab|--------------------------------------------------------------------------|
  |      
  |Gtr. V      
  | Cadd9         D5   Em7        G5      
Eb|--3------------------2------------------3-------------------3-------------|
Bb|--3------------------3------------------3-------------------3-------------|
Gb|--0------------------2-----------------(0)------------------0-------------|
Db|--2------------------0------------------2-------------------0-------------|
Ab|--3-----------------(0)-----------------2-------------------x-------------|
Eb|----------------------------------------0-------------------3-------------|
            
Submit corrections


        Staind - So Far Away lessons Hard to play? Try these video lessons and learn fast Staind - So Far Away lessons
        
↑ Back to top | Tablatures and chords for acoustic guitar and electric guitar, ukulele, drums are parodies/interpretations of the original songs. You may use it for private study, scholarship, research or language learning purposes only