Home » S » Staind »

Staind - Home Tabs

Artists:  A B C D E F G H I J K L M N O P Q R S T U V W X Y Z # 

Home Tabs

(ver. 1) Click to play this song!
Staind
~intro
E-------------------------|-----------------------I
B-------------------------|-----------------------I
G--7\6---------------5\4--|-----------------------I REPEAT
D--7\6----6/7--5-----3\2--|--9-10-9-10-9-------2--I
A--5\4-0--4/7--3--0--3\2--|--9-10-9-10-9-------0--I			 	
D------0--4/5--3--0-------|--9-10-9-10-9--3-2--0--I		


            *VERSE:
		
		
E------------------------------------------------I
B---------------10--10----10------10----10-------I
G--------------------7-------7-------7-----7-----I Repeat  
D-------------0------0---------0--------------0--I
A--5--5-/-8--------------------------------------I
D-----------9------------------------------------I
        
	*CHORUS:
E---------------------------------------------I
B---------------------------------------------I
G---------------------4/----------------------I REPEAT
D--7--7-7-7-0-0-0--4------(BEND)--------------I
A--5--5-5-5-0-0-0--2--2/----------------------I
D--5--5-5-5-0-0-0--2--------------------------I  

	
		BRIDGE:

	gtr. 1 (sliding, on rhythm pickup)
E----------------------------------------I
B----------------------------------------I
G----------------------------------------I
D----9-\-7-------------------------------I Repeat
A----------------------------------------I
D----------------------------------------I
|
|	gtr. 2 (clean tone, picking through)
|
E------------------------------------------I
B------------------------------------------I
G--0---------0-----------------------------I Repeat
D--4-------4---4---------------------------I
A--3-----3-------3-------------------------I
D--5---5-----------5-----------------------I

	    *OUTRO:

E-----------------------------I
B-----------------------------I
G---------/-0-----------------I
D--5-5-5--/-0-----------------I
A--5-5-5--/-0-----------------I
D--5-5-5--/-0-----------------I
            
Submit corrections

↑ Back to top | Tablatures and chords for acoustic guitar and electric guitar, ukulele, drums are parodies/interpretations of the original songs. You may use it for private study, scholarship, research or language learning purposes only