Home » S » Shinedown »

Shinedown - Cut The Cord Tabs

Artists:  A B C D E F G H I J K L M N O P Q R S T U V W X Y Z # 

Cut The Cord Tabs

(ver. 3) Click to play this song!
Shinedown
Piste 1
                                     Q    S S S S S S S S S S S S  
E||-------|-------|-------|-------|-------------------------------|
B||-------|-------|-------|-------|-------------------------------|
G||-------|-------|-------|-------|-------------------------------|
D||-------|-------|-------|-------|-------------------------------|
A||-------|-------|-------|-------|-------------------------------|
D||-------|-------|-------|-------|--0----0-0---0-0---0---0-0---0-|


  S S S S S S S S S S E   E  E     Q    S S S S S S S S S S S S  
--------------------------------|-------------------------------|
--------------------------------|-------------------------------|
-------------------------10-----|-------------------------------|
--------------------------------|-------------------------------|
--------------------------8-----|-------------------------------|
--0---0---0-0---0-0---0------0--|--0----0-0---0-0---0---0-0---0-|


  S S S S S S S S Q     Q       Q     S S S S E  E   S S S S  
-----------------------------|-------------------------------|
-----------------------------|-------------------------------|
-----------------------------|-------10-------------10-------|
------------------5b---------|-------------------------------|
-----------------------------|--------8--------------8-------|
--0---0---0-0---0-5b---------|--0-------0-L-0-0--0-----0-L-0-|


  E  E   S S S S E  E   E  E     Q     S S S S E  E   S S S S  
------------------------------|-------------------------------|
------------------------------|-------------------------------|
--------10-------------10-----|-------10-------------10-------|
------------------------------|-------------------------------|
---------8--------------8-----|--------8--------------8-------|
--0--0-----0-L-0-0--0------0--|--0-------0-L-0-0--0-----0-L-0-|


                               verse                          
  E  E   S S S S Q     Q       Q      S S S S E  E   S S S S  
----------------------------|--------------------------------|
----------------------------|--------------------------------|
--------10------------------|--------10-------------10-------|
-----------------5b---------|--------------------------------|
---------8------------------|---------8--------------8-------|
--0--0-----0-L-0-5b---------|--0--------0-L-0-0--0-----0-L-0-|


  E  E   S S S S E  E   E  E     Q     S S S S E  E   S S S S  
------------------------------|-------------------------------|
------------------------------|-------------------------------|
--------10-------------10-----|-------10-------------10-------|
------------------------------|-------------------------------|
---------8--------------8-----|--------8--------------8-------|
--0--0-----0-L-0-0--0------0--|--0-------0-L-0-0--0-----0-L-0-|


                                 verse                          
  E  E   S S S S Q      Q        Q      S S S S E  E   S S S S  
------------------------------|--------------------------------|
------------------------------|--------------------------------|
--------10-------------10b----|--------10-------------10-------|
-----------------5b-----------|--------------------------------|
---------8--------------8b----|---------8--------------8-------|
--0--0-----0-L-0-5b-----------|--0--------0-L-0-0--0-----0-L-0-|


  E  E   S S S S E  E   E  E     Q     S S S S E  E   S S S S  
------------------------------|-------------------------------|
------------------------------|-------------------------------|
--------10-------------10-----|-------10-------------10-------|
------------------------------|-------------------------------|
---------8--------------8-----|--------8--------------8-------|
--0--0-----0-L-0-0--0------0--|--0-------0-L-0-0--0-----0-L-0-|


  E  E   S S S S Q     Q      
-----------------------------|
-----------------------------|
--------10-------------------|
-----------------5b----5b----|
---------8-------------------|
--0--0-----0-L-0-5b----5b----|


  pre chorus                                               
  PM         PM PM PM PM PM PM PM PM PM PM PM PM PM PM PM  
  S          S  S  S  S  S  S  S  S  S  S  S  S  S  S  S   
----------------------------------------------------------|
--3----------------------------L--3--------------------L--|
--2----------------------------L--3--------------------L--|
--0----------------------------L--5--------------------L--|
----------------------------------------------------------|
--0----------0--0--0--0--0--0--0--5--5--5--5--5--5--5--5--|


  PM PM PM PM PM PM PM PM PM PM PM PM PM PM PM PM  
  S  S  S  S  S  S  S  S  S  S  S  S  S  S  S  S   
--------------------------------------------------|
--3--------------------------------------------L--|
--2--------------------------------------------L--|
--0--------------------------------------------L--|
--5--5--5--5--5--5--5--5--5--5--5--5--5--5--5--5--|
--------------------------------------------------|


  PM PM PM PM PM PM PM PM PM PM PM PM PM PM PM PM  
  S  S  S  S  S  S  S  S  S  S  S  S  S  S  S  S   
--------------------------------------------------|
--3--------------------L--3--------------------L--|
--3--------------------L--3--------------------L--|
--3--------------------L--5--------------------L--|
--1--1--1--1--1--1--1--1--------------------------|
--------------------------5--5--5--5--5--5--5--5--|


  PM PM PM PM PM PM PM PM                                                 
  S  S  S  S  S  S  S  S  S S S S S S  E      E  S  S E  E  E  E  S S E   
-------------------------------------------|-----------------------------|
--5--------------------L-------------------|-----------------------------|
--5--------------------L-------------------|-----------------------------|
--5--------------------L--5-5-5-5-5-5------|-----------------------------|
--3--3--3--3--3--3--3--3--3-3-3-3-3-3------|----------3------------------|
--------------------------------------12\--|--0--3h-5----5--3--5--3-0----|


  E  S  S  Q    S S S S Q       E  S  S E  E  E  E  S S E   
-----------------------------|-----------------------------|
-----------------------------|-----------------------------|
-----------------------------|-----------------------------|
-----------------------------|-----------------------------|
----------/8----8-5-5-5------|----------3------------------|
--0--3h-5--------------------|--0--3h-5----5--3--5--3-0----|


                                      chorus                                
  S S S S S S S S S  S S S S S S S    S      S S S S S S S S S S S S S S S  
-----------------------------------|---------------------------------------|
-----------------------------------|---------------------------------------|
-----------------------------------|---------------------------------------|
-----------------------------------|---------------------------------------|
----8-8-8-8-5-L-5-3h-5-5-5-3-------|--8------8-8-8-8-8-8-8-5-5-5-5-5-5-5-5-|
--0--------------------------5-3-0-|--8------8-8-8-8-8-8-8-5-5-5-5-5-5-5-5-|


  S S S S S S S S S S S S S S S S    S S S S S S S S S S E  Q     
----------------------------------|------------------------------|
----------------------------------|------------------------------|
----------------------------------|------------------------------|
------------------5-5-5-5-5-5-5-5-|--3-3-3-3-3-3-3-3-5-----------|
--0-0-0-0-5-5-5-5-3-3-3-3-3-3-3-3-|--1-1-1-1-1-1-1-1-3-----------|
--0-0-0-0-0-0-0-0-----------------|------------------------------|


  Q     S S S S E  E   S S S S    E  E   S S S S E  E   E  E   
-------------------------------|------------------------------|
-------------------------------|------------------------------|
-------10-------------10-------|--------10-------------10-----|
-------------------------------|------------------------------|
--------8--------------8-------|---------8--------------8-----|
--0-------0-L-0-0--0-----0-L-0-|--0--0-----0-L-0-0--0------0--|


  Q     S S S S E  E   S S S S    E  E   S S S S Q     Q      
-------------------------------|-----------------------------|
-------------------------------|-----------------------------|
-------10-------------10-------|--------10-------------------|
-------------------------------|-----------------5b----5b----|
--------8--------------8-------|---------8-------------------|
--0-------0-L-0-0--0-----0-L-0-|--0--0-----0-L-0-5b----5b----|


  Q     S S S S E  E   S S S S    E  E   S S S S E  E   E  E   
-------------------------------|------------------------------|
-------------------------------|------------------------------|
-------10-------------10-------|--------10-------------10-----|
-------------------------------|------------------------------|
--------8--------------8-------|---------8--------------8-----|
--0-------0-L-0-0--0-----0-L-0-|--0--0-----0-L-0-0--0------0--|


                                                  tremolo   
  Q     S S S S E  E   S S S S    E  E   S S S S  H         
-------------------------------|---------------------------|
-------------------------------|---------------------------|
-------10-------------10-------|--------10-------10--------|
-------------------------------|---------------------------|
--------8--------------8-------|---------8--------8--------|
--0-------0-L-0-0--0-----0-L-0-|--0--0-----0-L-0-----------|


  Q     S S S S E  E   S S S S    E  E   S S S S E  E   E  E   
-------------------------------|------------------------------|
-------------------------------|------------------------------|
-------10-------------10-------|--------10-------------10-----|
-------------------------------|------------------------------|
--------8--------------8-------|---------8--------------8-----|
--0-------0-L-0-0--0-----0-L-0-|--0--0-----0-L-0-0--0------0--|


  Q     S S S S E  E   S S S S    E  E   S S S S Q     Q      
-------------------------------|-----------------------------|
-------------------------------|-----------------------------|
-------10-------------10-------|--------10-------------------|
-------------------------------|-----------------5b----5b----|
--------8--------------8-------|---------8-------------------|
--0-------0-L-0-0--0-----0-L-0-|--0--0-----0-L-0-5b----5b----|


  pre chorus                                               
  PM         PM PM PM PM PM PM PM PM PM PM PM PM PM PM PM  
  S          S  S  S  S  S  S  S  S  S  S  S  S  S  S  S   
----------------------------------------------------------|
--3----------------------------L--3--------------------L--|
--2----------------------------L--3--------------------L--|
--0----------------------------L--5--------------------L--|
----------------------------------------------------------|
--0----------0--0--0--0--0--0--0--5--5--5--5--5--5--5--5--|


  PM PM PM PM PM PM PM PM PM PM PM PM PM PM PM PM  
  S  S  S  S  S  S  S  S  S  S  S  S  S  S  S  S   
--------------------------------------------------|
--3--------------------------------------------L--|
--2--------------------------------------------L--|
--0--------------------------------------------L--|
--5--5--5--5--5--5--5--5--5--5--5--5--5--5--5--5--|
--------------------------------------------------|


  PM PM PM PM PM PM PM PM PM PM PM PM PM PM PM PM  
  S  S  S  S  S  S  S  S  S  S  S  S  S  S  S  S   
--------------------------------------------------|
--3--------------------L--3--------------------L--|
--3--------------------L--3--------------------L--|
--3--------------------L--5--------------------L--|
--1--1--1--1--1--1--1--1--------------------------|
--------------------------5--5--5--5--5--5--5--5--|


  PM PM PM PM PM PM PM PM                                                 
  S  S  S  S  S  S  S  S  S S S S S S  E      E  S  S E  E  E  E  S S E   
-------------------------------------------|-----------------------------|
--5--------------------L-------------------|-----------------------------|
--5--------------------L-------------------|-----------------------------|
--5--------------------L--5-5-5-5-5-5------|-----------------------------|
--3--3--3--3--3--3--3--3--3-3-3-3-3-3------|----------3------------------|
--------------------------------------12\--|--0--3h-5----5--3--5--3-0----|


  E  S  S  Q    S S S S Q       E  S  S E  E  E  E  S S E   
-----------------------------|-----------------------------|
-----------------------------|-----------------------------|
-----------------------------|-----------------------------|
-----------------------------|-----------------------------|
----------/8----8-5-5-5------|----------3------------------|
--0--3h-5--------------------|--0--3h-5----5--3--5--3-0----|


                                      chorus                                
  S S S S S S S S S  S S S S S S S    S      S S S S S S S S S S S S S S S  
-----------------------------------|---------------------------------------|
-----------------------------------|---------------------------------------|
-----------------------------------|---------------------------------------|
-----------------------------------|---------------------------------------|
----8-8-8-8-5-L-5-3h-5-5-5-3-------|--8------8-8-8-8-8-8-8-5-5-5-5-5-5-5-5-|
--0--------------------------5-3-0-|--8------8-8-8-8-8-8-8-5-5-5-5-5-5-5-5-|


  S S S S S S S S S S S S S S S S    S S S S S S S S S S S S S S S S  
----------------------------------|----------------------------------|
----------------------------------|----------------------------------|
----------------------------------|----------------------------------|
----------7-7-7-7-5-5-5-5-5-5-5-5-|--3-3-3-3-3-3-3-3-5-5-5-5-5-5-5-5-|
--0-0-0-0-5-5-5-5-3-3-3-3-3-3-3-3-|--1-1-1-1-1-1-1-1-3-3-3-3-3-3-3-3-|
--0-0-0-0-0-0-0-0-----------------|----------------------------------|


  bridge                                                        
  Q       S S S S E  E   S S S S    Q     E  S S S S E  E  E    
---------------------------------|-----------------------------|
---------------------------------|-----------------------------|
---------10-------------10-------|-----------------------------|
---------------------------------|-----------------------------|
----------8-------0------8-------|--------0--L---3-4-5---------|
--0---------0-L-0-0--0-----0-L-0-|--5b----0--L-0--------0--5b--|


  Q     E  S S S S E  E  E      Q     E  S S S S E  E  E    
-----------------------------|-----------------------------|
-----------------------------|-----------------------------|
-----------------------------|-----------------------------|
----------------------3------|-----------------------------|
--------0--L---3-4-5--3------|--------0--L---3-4-5---------|
--5b----0--L-0--------3--5b--|--5b----0--L-0--------0--5b--|


  S S S S S S S S S S S S S S S S    Q     E  S S S S E  E  E    
----------------------------------|-----------------------------|
----------------------------------|-----------------------------|
----------------------------------|-----------------------------|
----------------------------------|-----------------------------|
--------------1-1-1-3-3-3-3-3-3-3-|--------0--L---3-4-5---------|
--5-5-5-5-5-5---------------------|--5b----0--L-0--------0--5b--|


                      |--3--|                                 
  Q     E  S S S S E  E  E  E     Q     E  S S S S E  E  E    
-------------------------------|-----------------------------|
-------------------------------|-----------------------------|
-------------------------------|-----------------------------|
-------------------------------|-----------------------------|
--------0--L---3-4-5-----------|--------0--L---3-4-5---------|
--5b----0--L-0--------3--3--3--|--5b----0--L-0--------0--5b--|


  S S S S S S S S S S S S S S S S  
----------------------------------|
----------------------------------|
----------------------------------|
----------------------------------|
--------------1-1-1-3-3-3-3-3-3-3-|
--5-5-5-5-5-5---------------------|


  pre chorus                                               
  PM         PM PM PM PM PM PM PM PM PM PM PM PM PM PM PM  
  S          S  S  S  S  S  S  S  S  S  S  S  S  S  S  S   
----------------------------------------------------------|
--3----------------------------L--3--------------------L--|
--2----------------------------L--3--------------------L--|
--0----------------------------L--5--------------------L--|
----------------------------------------------------------|
--0----------0--0--0--0--0--0--0--5--5--5--5--5--5--5--5--|


  PM PM PM PM PM PM PM PM PM PM PM PM PM PM PM PM  
  S  S  S  S  S  S  S  S  S  S  S  S  S  S  S  S   
--------------------------------------------------|
--3--------------------------------------------L--|
--2--------------------------------------------L--|
--0--------------------------------------------L--|
--5--5--5--5--5--5--5--5--5--5--5--5--5--5--5--5--|
--------------------------------------------------|


  PM PM PM PM PM PM PM PM PM PM PM PM PM PM PM PM  
  S  S  S  S  S  S  S  S  S  S  S  S  S  S  S  S   
--------------------------------------------------|
--3--------------------L--3--------------------L--|
--3--------------------L--3--------------------L--|
--3--------------------L--5--------------------L--|
--1--1--1--1--1--1--1--1--------------------------|
--------------------------5--5--5--5--5--5--5--5--|


                  pick slide                                
  S S S S S S S S H             E  S  S E  E  E  E  S S E   
-----------------------------|-----------------------------|
----------------L------------|-----------------------------|
--5-5-5-5-5-5-5-5------------|-----------------------------|
--5-5-5-5-5-5-5-5-x\---------|-----------------------------|
--3-3-3-3-3-3-3-3-x\---------|----------3------------------|
-----------------------------|--0--3h-5----5--3--5--3-0----|


  E  S  S  Q    S S S S Q       E  S  S E  E  E  E  S S E   
-----------------------------|-----------------------------|
-----------------------------|-----------------------------|
-----------------------------|-----------------------------|
-----------------------------|-----------------------------|
----------/8----8-5-5-5------|----------3------------------|
--0--3h-5--------------------|--0--3h-5----5--3--5--3-0----|


                                      chorus                                
  S S S S S S S S S  S S S S S S S    S      S S S S S S S S S S S S S S S  
-----------------------------------|---------------------------------------|
-----------------------------------|---------------------------------------|
-----------------------------------|---------------------------------------|
-----------------------------------|---------------------------------------|
----8-8-8-8-5-L-5-3h-5-5-5-3-------|--8------8-8-8-8-8-8-8-5-5-5-5-5-5-5-5-|
--0--------------------------5-3-0-|--8------8-8-8-8-8-8-8-5-5-5-5-5-5-5-5-|


  S S S S S S S S S S S S S S S S    S S S S S S S S S S S S S S S S  
----------------------------------|----------------------------------|
----------------------------------|----------------------------------|
----------------------------------|----------------------------------|
----------7-7-7-7-5-5-5-5-5-5-5-5-|--3-3-3-3-3-3-3-3-5-5-5-5-5-5-5-5-|
--0-0-0-0-5-5-5-5-3-3-3-3-3-3-3-3-|--1-1-1-1-1-1-1-1-3-3-3-3-3-3-3-3-|
--0-0-0-0-0-0-0-0-----------------|----------------------------------|


  E  E  Q    E  E  Q       S S S S S S S S S S S S S S S S  
------------------------|----------------------------------|
------------------------|----------------------------------|
------------------------|----------------------------------|
--------7----------7----|--3-3-3-3-3-3-3-3-5-5-5-5-5-5-5-5-|
--------5----------5----|--1-1-1-1-1-1-1-1-3-3-3-3-3-3-3-3-|
--0--0--0----0--0--0----|----------------------------------|


   S  S  S  S  S  S  S  S  S  S  S  S  S  S  S  S  
--10-10-10-10-10-10-10-10-10-10-10-10-10-10-10-10-|
--------------------------------------------------|
---7--7--7--7--7--7--7--7--7--7--7--7--7--7--7--7-|
--------------------------------------------------|
---------------------------5--5--5--5--5--5--5--5-|
---0--0--0--0--0--0--0--0-------------------------|


  Q     S S S S E  E   S S S S    E  E   S S S S E  E   E  E   
-------------------------------|------------------------------|
-------------------------------|------------------------------|
-------10-------------10-------|--------10-------------10-----|
-------------------------------|------------------------------|
--------8--------------8-------|---------8--------------8-----|
--0-------0-L-0-0--0-----0-L-0-|--0--0-----0-L-0-0--0------0--|


  Q     S S S S E  E   S S S S    E  E   S S S S Q     Q      
-------------------------------|-----------------------------|
-------------------------------|-----------------------------|
-------10-------------10-------|--------10-------------------|
-------------------------------|-----------------5b----5b----|
--------8--------------8-------|---------8-------------------|
--0-------0-L-0-0--0-----0-L-0-|--0--0-----0-L-0-5b----5b----|


  S  S S S S  S S S H          
-----------------------------||
-----------------------------||
-----------------------------||
--5b-------5b----------------||
-----------------------------||
--0--0-0-0-0--0-0-0----------||            
Submit corrections

↑ Back to top | Tablatures and chords for acoustic guitar and electric guitar, ukulele, drums are parodies/interpretations of the original songs. You may use it for private study, scholarship, research or language learning purposes only