Home » S » Shinedown »

Shinedown - Cut The Cord Bass

Artists:  A B C D E F G H I J K L M N O P Q R S T U V W X Y Z # 

Cut The Cord Bass

(ver. 2) Click to play this song!
Shinedown
Tuning: Dropped D

Intro:
G|---------------------------------------------------------------------------|
D|---------------------------------------------------------------------------|
A|----------0--1--0----------4-----------------------------------------------|
D|--0---2-3------------5--3--------------------------------------------------|

Verse:
G|------------------------------------------------------------------------------------|
D|------------------------------------------------------------------------------------|
A|------------------------------------------------3\8---------------------------------| (Repeat)
D|---0--3-0--0-0-0-0--3-0--0-0-0-0--3-0--0-0-0-0------0-0-----(5^5^)------------------| 
(Bends occur at end of verse)

Chorus:
G|------------------------------------------------------------------------------|
D|------------------------------------------------------------------------------|
A|-----------3---------------------------3\8---3H5-5-5-5------------------------|
D|---0--3H5-----5--3--5--3--0----0--3H5-----------------------------------------|

G|---------------------------------------------------------------------------|
D|---------------------------------------------------------------------------|
A|-----------3--------------------8-8-8-8--5-5-5-5--3H5-5-5-5--3H5-5-5-5-----|
D|---0--3H5-----5--3--5--3--0------------------------------------------------|

G|-----------------------------------------------------------------------------------------|
D|-----------------------------------------------------------------------------------------|
A|--1-1-1-1-1-1-1-1------------------------------------3-3-3-3-3-3-3-3--1-1-1-1-1-1-1-1--3-|
D|-------------------5-5-5-5-5-5-5-5--0-0-0-0-0-0-0-0--------------------------------------|

Bridge:
G|------------------------------------------------------------------------------------------|
D|------------------------------------------------------------------------------------------|
A|--------------3-4-5-------------------3-4-5-----------------------------------------------|  X2
D|--5^--0-(0)---------0--5^5^--0-(0)----------5-5-5-5-5-5-5-5--8-8-8-8-8---10-10-10-10--0---|

Outro: (play the chorus all the way through once and then play this st the end)
G|-----------------------------------------------------------------------------------|
D|-----------------------------------------------------------------------------------|
A|--3-3-3-3-3-3-3-3---------------1-1-1-1-1-1-1-1--3-3-3-3-3-3-3-3-------------------|
D|-------------------0--0--0--0-------------------------------------0--0--0--0-------|

(After play the intro and end with this)
G|---------------------------------------------------------------------------|
D|---------------------------------------------------------------------------|
A|---------------------------------------------------------------------------|
D|--5^--5^--5^---5^----------------------------------------------------------|            
Submit corrections

↑ Back to top | Tablatures and chords for acoustic guitar and electric guitar, ukulele, drums are parodies/interpretations of the original songs. You may use it for private study, scholarship, research or language learning purposes only