Home » S » Shinedown »

Shinedown - Cut The Cord Tabs

Artists:  A B C D E F G H I J K L M N O P Q R S T U V W X Y Z # 

Cut The Cord Tabs

(ver. 2) Click to play this song!
Shinedown
opening:

e|--5--------------5-------5--------|
B|----3-5-6-5-3------3-5-6----------|
G|----------------------------------|
D|----------------------------------|  X3
A|----------------------------------|
D|----------------------------------|

"freedom lalala..."                             "CUT IT!"

e|--------------------------------------------------------------|
B|--------------------------------------------------------------|       
G|--------------------------------------------------------------|       
D|--0---3---0-0---3---0-0---3---0-0---3-    -------5b-----------|
D|--0---3---0-0---3---0-0---3---0-0---3--X2 -------5b-----------|
A|--0---3---0-0---3---0-0---3---0-0---3--   -------5b-----------|


rest of the "freedom lalala" and the verse: (end every second round with this)

e|-----------------------------------------------------------|
B|-----------------------------------------------------------|       
G|-----------------------------------------------------------|       
D|--0---3---0-0---3---0-0---3---0-0---3-     --6b------------|
D|--0---3---0-0---3---0-0---3---0-0---3- X2  --6b------------|
A|--0---3---0-0---3---0-0---3---0-0---3-     --6b------------|

"'cause victory is all you need..." (mute the chords)          "Im gonna make it"

e|---------------------------------------------------------------------|
B|---------------------------------------------------------------------|           
G|---------------------------------------------------------------------|
D|-3-3-3-3-3-3-3-3-0-0-0-0-0-0-0-0-3-3-3-3-3-3-3-3-5-5-5-5-5-5-5-5-5555|
A|-3-3-3-3-3-3-3-3-0-0-0-0-0-0-0-0-3-3-3-3-3-3-3-3-5-5-5-5-5-5-5-5-5555|
D|-3-3-3-3-3-3-3-3-0-0-0-0-0-0-0-0-3-3-3-3-3-3-3-3-5-5-5-5-5-5-5-5-5555|

"Rain! so ring the bell!..." (you may need to strum the chords more than what i wrote)

e|-------------------------------------------------|
B|-------------------------------------------------|
G|-------------------------------------------------|
D|-7--10---55--7---3-3-5--7--10---55--7--3-3-5-----|
A|-7--10---55--7---3-3-5--7--10---55--7--3-3-5-----|
D|-7--10---55--7---3-3-5--7--10---55--7--3-3-5-----|

"'cause agony brings no reward for one more hit and one last score"

e|----------------------------------|
B|----------------------------------|
G|----------------------------------|
D|-3-3-3-3-3-3-3-3-0-0-0-0-0-0-0-0--|  
A|-3-3-3-3-3-3-3-3-0-0-0-0-0-0-0-0--|
D|-3-3-3-3-3-3-3-3-0-0-0-0-0-0-0-0--|

"Don't be a casualty, CUT THE CORD!"

e|----------------------------------|
B|----------------------------------|
G|----------------------------------|
D|-3-3-5-5--                      --|  
A|-3-3-5-5--  Don't play here     --|
D|-3-3-5-5--                      --|

"freedom lalala" and the verse:     (end every second round with this)

e|-----------------------------------------------------------|
B|-----------------------------------------------------------|       
G|-----------------------------------------------------------|       
D|--0---3---0-0---3---0-0---3---0-0---3-     --6b------------|
D|--0---3---0-0---3---0-0---3---0-0---3- X2  --6b------------|
A|--0---3---0-0---3---0-0---3---0-0---3-     --6b------------|

"'cause victory is all you need..." (mute the chords)             "Im gonna make it"

e|---------------------------------------------------------------------|
B|---------------------------------------------------------------------|          
G|---------------------------------------------------------------------|
D|-3-3-3-3-3-3-3-3-0-0-0-0-0-0-0-0-3-3-3-3-3-3-3-3-5-5-5-5-5-5-5-5-5555|
A|-3-3-3-3-3-3-3-3-0-0-0-0-0-0-0-0-3-3-3-3-3-3-3-3-5-5-5-5-5-5-5-5-5555|
D|-3-3-3-3-3-3-3-3-0-0-0-0-0-0-0-0-3-3-3-3-3-3-3-3-5-5-5-5-5-5-5-5-5555|

"Rain! so ring the bell!..." (you may need to strum the chords more than what i wrote)

e|-------------------------------------------------|
B|-------------------------------------------------|
G|-------------------------------------------------|
D|-7--10---55--7---3-3-5--7--10---55--7--3-3-5-----|
A|-7--10---55--7---3-3-5--7--10---55--7--3-3-5-----|
D|-7--10---55--7---3-3-5--7--10---55--7--3-3-5-----|

"'cause agony brings no reward for one more hit and one last score"

e|----------------------------------|
B|----------------------------------|
G|----------------------------------|
D|-3-3-3-3-3-3-3-3-0-0-0-0-0-0-0-0--|  
A|-3-3-3-3-3-3-3-3-0-0-0-0-0-0-0-0--|
D|-3-3-3-3-3-3-3-3-0-0-0-0-0-0-0-0--|

"Don't be a casualty, CUT THE CORD!"

e|---------------------------------------------------------------------|
B|---------------------------------------------------------------------|
G|---------------------------------------------------------------------|
D|-3-3-5-5-7~----------------------------------------------------------|
A|-3-3-5-5-7~----------------------------------------------------------|
D|-3-3-5-5-7~----------------------------------------------------------|

Bridge (starting right after the last chord in the chorus)       "CUT IT!"         

e|----------------------------------------------------------------------------------|
B|----------------------------------------------------------------------------------|     
G|----------------------------------------------------------------------------------|
D|--10-7-7-10--5b---0---3---5---5b---0---3---5---5b---0---3---5-5-5--8-8-8--10-10-10|
A|--10-7-7-10--5b---0---3---5---5b---0---3---5---5b---0---3---5-5-5--8-8-8--10-10-10|
D|--10-7-7-10--5b---0---3---5---5b---0---3---5---5b---0---3---5-5-5--8-8-8--10-10-10|

e|-------------------------------------------------------------------------|
B|-------------------------------------------------------------------------|     
G|-------------------------------------------------------------------------|
D|----5b---0---3---5---5b---0---3---5---5b---0---3---5-5-5--8-8-8--10-10-10|
A|----5b---0---3---5---5b---0---3---5---5b---0---3---5-5-5--8-8-8--10-10-10|
D|----5b---0---3---5---5b---0---3---5---5b---0---3---5-5-5--8-8-8--10-10-10|

"'cause victory is all you need..." (mute the chords)          "Im gonna make it"

e|---------------------------------------------------------------------|
B|---------------------------------------------------------------------|           
G|---------------------------------------------------------------------|
D|-3-3-3-3-3-3-3-3-0-0-0-0-0-0-0-0-3-3-3-3-3-3-3-3-5-5-5-5-5-5-5-5-5555|
A|-3-3-3-3-3-3-3-3-0-0-0-0-0-0-0-0-3-3-3-3-3-3-3-3-5-5-5-5-5-5-5-5-5555|
D|-3-3-3-3-3-3-3-3-0-0-0-0-0-0-0-0-3-3-3-3-3-3-3-3-5-5-5-5-5-5-5-5-5555|

"Rain! so ring the bell!..." (you may need to strum the chords more than what i wrote)

e|-------------------------------------------------|
B|-------------------------------------------------|
G|-------------------------------------------------|
D|-7--10---55--7---3-3-5--7--10---55--7--3-3-5-----|
A|-7--10---55--7---3-3-5--7--10---55--7--3-3-5-----|
D|-7--10---55--7---3-3-5--7--10---55--7--3-3-5-----|

"'cause agony brings no reward for one more hit and one last score"

e|----------------------------------|
B|----------------------------------|
G|----------------------------------|
D|-3-3-3-3-3-3-3-3-0-0-0-0-0-0-0-0--|  
A|-3-3-3-3-3-3-3-3-0-0-0-0-0-0-0-0--|
D|-3-3-3-3-3-3-3-3-0-0-0-0-0-0-0-0--|

"Don't be a casualty, CUT THE CORD!, don't be a casualy, CUT THE CORD!"

e|---------------------------------------------------------------------------|
B|---------------------------------------------------------------------------|
G|---------------------------------------------------------------------------|
D|-3-3-5-5-7-7---3-3-5-5-7-7---------------3-3-5-5-7-7---3-3-5-5-7-7---------|
A|-3-3-5-5-7-7---3-3-5-5-7-7---------------3-3-5-5-7-7---3-3-5-5-7-7---------|           
D|-3-3-5-5-7-7---3-3-5-5-7-7---------------3-3-5-5-7-7---3-3-5-5-7-7---------|
 
"freedom lalala...":                         end with this

e|-----------------------------------------------------------|
B|-----------------------------------------------------------|       
G|-----------------------------------------------------------|       
D|--0---3---0-0---3---0-0---3---0-0---3-----6b-6b-6b---------|
D|--0---3---0-0---3---0-0---3---0-0---3-----6b-6b-6b---------|
A|--0---3---0-0---3---0-0---3---0-0---3-----6b-6b-6b---------|            
Submit corrections

↑ Back to top | Tablatures and chords for acoustic guitar and electric guitar, ukulele, drums are parodies/interpretations of the original songs. You may use it for private study, scholarship, research or language learning purposes only