Home » S » Shinedown »

Shinedown - Fly From The Inside Tabs

Artists:  A B C D E F G H I J K L M N O P Q R S T U V W X Y Z # 

Fly From The Inside Tabs

(ver. 1) Click to play this song!
Shinedown
Part 1: 
(clean)        (distortion)
G|-11-12--14------10-9-5---
D|-----------------8-x-x---
A|-9//10//12-------8-7-3---
D|-0-0--0----------8-------
	Repeat 4x

Part 2: 
(distortion)
G|-----------------------------
D|-0-8-7-3-3-5----0-8-7-3-x-3--
A|-0-8-7-3-3-5----0-8-7-3-x-3--
D|-0-8-7-3-3-5----0-8-7-3-x-3--

Part 2a:
  every other time replace the

D|-x-3--        D|-xxxx-  (random
A|-x-3--        A|-xxxx-  harmonics around
D|-x-3--  with  D|-xxxx-    the 3rd fret)

Verse:
(clean)
G|--(4)-----(5)-
D|-2-------3----
A|-2-------3----
D|-2-------3----
	repeat lots of times

Pre Chorus:
(distortion)
G|-7-----10---------7-----10-12--
D|-5-----10---------5-----10-10--
A|-5------8---------5------8-10--
D|-5------8---------5------8-10--
 
Chorus:
(distortion)
G|-2-10/9/5--5-12------2-10/9/5--5-7--
D|-0--8-x-x--3-10------0--8-x-x--3-5--
A|-0--8/7/3--3-10------0--8/7/3--3-5--
D|-0--8------3-10------0--8------3-5--

Break:
(distortion)
G|-------------------------------
D|-0-3-0-3-xxxx-----0-3-0-3-x-3--
A|-0-x-0-x-xxxx-----0-x-0-x-x-x--
D|-0-3-0-3-xxxx-----0-3-0-3-x-3--
    you get the idea


and that's all the parts to the song. just listen to the track
to get all the parts down. it's a great song and lots of fun to
            
Submit corrections

↑ Back to top | Tablatures and chords for acoustic guitar and electric guitar, ukulele, drums are parodies/interpretations of the original songs. You may use it for private study, scholarship, research or language learning purposes only