Home » S » Shinedown »

Shinedown - Her Name Is Alice Bass

Artists:  A B C D E F G H I J K L M N O P Q R S T U V W X Y Z # 

Her Name Is Alice Bass

(ver. 1) Click to play this song!
Shinedown

Verse I
G|-----------------------------------------|
D|-----------------------------------------|
A|---------------------1~--------3~--------| x 2
D|-5~--------4~----------------------------|

Pre-Chorus
G|------------------------------------------------------------------------|
D|------------------------------------------------------------------------|
A|--------------------------1--1--1--1------------------------------------|
D|-1--1--1--1-3-4--4--4--4--------------3--3--3--3--1--1--1--1--4~--------|

Chorus
G|---------------------------------------------------------------------------------------------|
D|---------------------------------------------------------------------------------------------|
A|---------------------------------------------------------------------------------------------|
D|-5--5--5--5-/8--8--8--8-\1~--------1----1--1--5--5--5--5-/8--8--8--8-\1~--------1--1~--------|

Verse II
G|-----------------------------------------------------------------|
D|-----------------------------------------------------------------|
A|---------------------------------1-1-1-1-1-1-1-1-3-3-3-3-3-3-3-3-| x 2
D|-5-5-5-5-5-5-5-5-4-4-4-4-4-4-4-4---------------------------------|

Pre-Chorus

Chorus 

Bridge
G|-----------------------------------------------------------------|
D|-----------------------------------------------------------------|
A|-----------------------------------------------------------------| x 2
D|-3-3-3-3-3-3-3-3-5-5-5-5-5-5-5-5-1-1-1-1-1-1-1-1-1-1-1-1-1-1-1-1-|

Final Chorus
G|-----------------------------------------------------------------|
D|-----------------------------------------------------------------|
A|-----------------------------------------------------------------| x 3
D|-5-5-5-5-5-5-5-5/8-8-8-8-8-8-8-8\1-1-1-1-1-1-1-1-1-1-1-1-1-1-1-1-|

G|---------------------------------------------------------------------|
D|---------------------------------------------------------------------|
A|---------------------------------------------------------------------| 
D|-5-5-5-5-5-5-5-5/8-8-8-8-10-10-12-12\1-1-1-1-1-1-1-1-1-1-1-1-1-1-1-1-|

Outro
G|------------------------------------------------|
D|------------------------------------------------|
A|------------------------------------------------|
D|-5~---------------------------------------------|            
Submit corrections

↑ Back to top | Tablatures and chords for acoustic guitar and electric guitar, ukulele, drums are parodies/interpretations of the original songs. You may use it for private study, scholarship, research or language learning purposes only