Home » S » Shinedown »

Shinedown - Cut The Cord Bass

Artists:  A B C D E F G H I J K L M N O P Q R S T U V W X Y Z # 

Cut The Cord Bass

(ver. 1) Click to play this song!
Shinedown
Tuning: D A D G

Intro/Verse 1 (0:22)

G|-----------------------------------------------------|
D|-----------------------------------------------------|
A|-----------------------------------------------------|
D|-0--15p0--0-0--0--15p0--0-0--0--15p0--0-0--0--/15--0-|

G|-----------------------------------------------------|
D|-----------------------------------------------------|
A|-----------------------------------------------------|
D|-0--15p0--0-0--0--15p0--0-0--0--15p0--0-17b--17b-----|

G|-----------------------------------------------------|
D|-----------------------------------------------------|
A|-----------------------------------------------------|
D|-0--15p0--0-0--0--15p0--0-0--0--15p0--0-0--0--/15--0-|

G|------------------------------------------------|
D|------------------------------------------------|
A|------------------------------------------------|
D|-0--15p0--0-0--0--15p0--0-0--0--15p0--0-17b-----|

G|-----------------------------------------------------|
D|-----------------------------------------------------|
A|-----------------------------------------------------|
D|-0--15p0--0-0--0--15p0--0-0--0--15p0--0-0--0--/15--0-|

G|-----------------------------------------------------|
D|-----------------------------------------------------|
A|-----------------------------------------------------|
D|-0--15p0--0-0--0--15p0--0-0--0--15p0--0-5b--5b-------|

Pre- Chorus Bass Plays Nothing

Chorus (1:05)

G|-----------------------------------------------------|
D|-----------------------------------------------------|
A|-------3---------------------------------------------|
D|-0-3h5----5--3--5--3-0----0--3/15-15--15p12--12------|

G|----------------------------------------------------------|
D|----------------------------------------------------------|
A|-------3------------------5h8-8-8-8p5-5-5-3h5-5-5-3h5-5-5-|
D|-0-3h5----5--3--5--3-0------------------------------------|

G|-------------------------------------------|
D|-------------------------------------------|
A|-1-1-1-1-----------------3-3-3-3-1-1-1-1-3-|
D|---------5-5-5-5-0-0-0-0-------------------|

Pre- Verse/Verse 2 (1:24)

G|-----------------------------------------------------|
D|-----------------------------------------------------|
A|-----------------------------------------------------|
D|-0--15p0--0-0--0--15p0--0-0--0--15p0--0-0--0--/15--0-|

G|-----------------------------------------------------|
D|-----------------------------------------------------|
A|-----------------------------------------------------|
D|-0--15p0--0-0--0--15p0--0-0--0--15p0--0-17b--17b-----|

G|-----------------------------------------------------|
D|-----------------------------------------------------|
A|-----------------------------------------------------|
D|-0--15p0--0-0--0--15p0--0-0--0--15p0--0-0--0--/15--0-|

G|------------------------------------------|
D|------------------------------------------|
A|------------------------------------------|
D|-0--15p0--0-0--0--15p0--0-0--0--15p0------|

G|-----------------------------------------------------|
D|-----------------------------------------------------|
A|-----------------------------------------------------|
D|-0--15p0--0-0--0--15p0--0-0--0--15p0--0-0--0--/15--0-|

G|-----------------------------------------------------|
D|-----------------------------------------------------|
A|-----------------------------------------------------|
D|-0--15p0--0-0--0--15p0--0-0--0--15p0--0-5b--5b-------|

Chorus (2:07)

G|-----------------------------------------------------|
D|-----------------------------------------------------|
A|-------3---------------------------------------------|
D|-0-3h5----5--3--5--3-0----0--3/15-15--15p12--12------|

G|----------------------------------------------------------|
D|----------------------------------------------------------|
A|-------3------------------5h8-8-8-8p5-5-5-3h5-5-5-3h5-5-5-|
D|-0-3h5----5--3--5--3-0------------------------------------|

G|---------------------------------------------------|
D|---------------------------------------------------|
A|-1-1-1-1-----------------3-3-3-3-1-1-1-1-3-3-3-3---|
D|---------5-5-5-5-0-0-0-0-------------------------0-|

Bridge (2:28)

G|--------------------------------------------------------------------------------------------------|
D|--------------------------------------------------------------------------------------------------|
A|----------3-4-5-----------------3-4-5-----------------3-4-5---------------------------------------|
D|-5b---0----------0--5--5b---0----------3--5--5b---0----------0--5--5---5-5--8---10-10-10-10-10-10-|

G|--------------------------------------------------------------------------------------------------|
D|--------------------------------------------------------------------------------------------------|
A|----------3-4-5-----------------3-4-5-----------------3-4-5---------------------------------------|
D|-5b---0----------0--5--5b---0----------3--5--5b---0----------0--5--5---5-5--8---10-10-10-10-10-10-|

Chorus (3:01)

G|-----------------------------------------------------|
D|-----------------------------------------------------|
A|-------3---------------------------------------------|
D|-0-3h5----5--3--5--3-0----0--3/15-15--15p12--12------|

G|----------------------------------------------------------|
D|----------------------------------------------------------|
A|-------3------------------5h8-8-8-8p5-5-5-3h5-5-5-3h5-5-5-|
D|-0-3h5----5--3--5--3-0------------------------------------|

G|-----------------------------------------------------------------|
D|-----------------------------------------------------------------|
A|-1-1-1-1-----------------3-3-3-3-1-1-1-1-3-3-3-3-----------------|
D|---------5-5-5-5-0-0-0-0-------------------------0-0-0-0-0-0-0-0-|

G|-----------------------------------|
D|-----------------------------------|
A|-1-1-1-1-3-3-3-3-------------------|
D|-----------------0-0-0/12-12-12-12-|

Outro (3:28)

G|-----------------------------------------------------|
D|-----------------------------------------------------|
A|-----------------------------------------------------|
D|-0--15p0--0-0--0--15p0--0-0--0--15p0--0-0--0--/15--0-|

G|-------------------------------------------------------|
D|-------------------------------------------------------|
A|-------------------------------------------------------|
D|-0--15p0--0-0--0--15p0--0-0--0--15p0--0-5b--5b--5b--5b-|            
Submit corrections

↑ Back to top | Tablatures and chords for acoustic guitar and electric guitar, ukulele, drums are parodies/interpretations of the original songs. You may use it for private study, scholarship, research or language learning purposes only