» » »

Portugal The Man - Modern Jesus Tabs

Artists:  A B C D E F G H I J K L M N O P Q R S T U V W X Y Z # 

Modern Jesus Tabs

(ver. 2) Click to play this song!
Portugal The Man
 Rating:
4.3/5 (22 votes)

 Modern Jesus lessons Tabs too difficult? Try these video lessons and learn fast
 
                Tuning: Standard

e|--18---18---18---18---16---16---16-----------------------------------------|
B|---------------------------------------16-----16--16--16--18--16--18-------|
G|---------------------------------------------------------------------------|
D|---------------------------------------------------------------------------|
A|---------------------------------------------------------------------------|
E|---------------------------------------------------------------------------|

e|--18---18---18---18---16---16---16-----------------------------------------|
B|---------------------------------------16---14--14--14--16--14--16---------|
G|---------------------------------------------------------------------------|
D|---------------------------------------------------------------------------|
A|---------------------------------------------------------------------------|
E|---------------------------------------------------------------------------|

e|--18---18---18---18---16---16---16-----------------------------------------|
B|---------------------------------------16-----16--16--16--18--16--18-------|
G|---------------------------------------------------------------------------|
D|---------------------------------------------------------------------------|
A|---------------------------------------------------------------------------|
E|---------------------------------------------------------------------------|


e|---------------------------------------------------------------------------|
B|--16--16--16--16--14--16----14--14--14--14--11--11-------------------------|
G|---------------------------------------------------------------------------|
D|---------------------------------------------------------------------------|
A|---------------------------------------------------------------------------|
E|---------------------------------------------------------------------------|            
Submit corrections


        Modern Jesus lessons Hard to play? Try these video lessons and learn fast Modern Jesus lessons
        
↑ Back to top | Tablatures and chords for acoustic guitar and electric guitar, ukulele, drums are parodies/interpretations of the original songs. You may use it for private study, scholarship, research or language learning purposes only