» » »

Portugal The Man - How The Leopard Got Its Spots Bass

Artists:  A B C D E F G H I J K L M N O P Q R S T U V W X Y Z # 

How The Leopard Got Its Spots Bass

(ver. 1) Click to play this song!
Portugal The Man
 Rating:
4.2/5 (5 votes)

 How The Leopard Got Its Spots lessons Tabs too difficult? Try these video lessons and learn fast
 
                Delicious!

Intro  (0:21)
G|-----------------|
D|-2-2-2-2-0-0-0-0-|
A|-----------------|
E|-----------------|x1

Pre-Verse (0:23)
G|---------------------------------|
D|-7777777555555553333333322220000-|
A|---------------------------------|
E|---------------------------------|x2

Verse (0:36)
G|-----------------------------------------------|
D|-----------------------------------------------|
A|-12\------12-12\------12-12\-----12-15\-----12-|
E|------0-4--------0-4---------0-4--------0-4----|x2

Pre-Chorus (0:50)
G|---------------------------------|
D|-7-7-7-7-5-5-5-5-3-3-3-3-2-2-0-0-|
A|---------------------------------|
E|---------------------------------|x2

Chorus (1:06)
G|-------------------------------------|
D|-------------------------------------|
A|-------------------------------------|
E|-3h55-5-5-3h55-5-5-7h99-9-9-5h77-7-7-|x3

Chorus Cont.(1:27)
G|------------------------|
D|------------------------|
A|------------------------|
E|-3h55-5-5-3h55-5-5-7h9~-|x1

Intro x1 (1:41)
Verse x2 (1:43)
Pre-Chorus x2 (1:56)
Chorus x5 (2:13)
Chorus Cont. x1 (2:48)

Breakdown x1 (3:15)
G|-------------------------------------|
D|-------------------------------------|
A|-------------------------------------|
E|-5~--5-5-5-10p8-(078)-5~-5-5-5-10p8~-|

Intro x1 (3:40)
Pre-Chorus x1 (3:42)

Outro (3:48)
G|--------------------|
D|-7-7-7-7-5-5-5-5-3\-|
A|--------------------|
E|--------------------|
            
Submit corrections


        How The Leopard Got Its Spots lessons Hard to play? Try these video lessons and learn fast How The Leopard Got Its Spots lessons
        
↑ Back to top | Tablatures and chords for acoustic guitar and electric guitar, ukulele, drums are parodies/interpretations of the original songs. You may use it for private study, scholarship, research or language learning purposes only