» » »

Portugal The Man - Modern Jesus Tabs

Artists:  A B C D E F G H I J K L M N O P Q R S T U V W X Y Z # 

Modern Jesus Tabs

(ver. 1) Click to play this song!
Portugal The Man
 Rating:
2.7/5 (22 votes)

 Modern Jesus lessons Tabs too difficult? Try these video lessons and learn fast
 
                Verse/Intro X5

Chorus X1

Verse X3

Chorus X1

Bridge (same as verse) X2

Instrumental (Bb/Gb/Db/Ab X2)

Chorus X1

Outro 

----------------------------------------------------------------------------------------------------------


Tuning: Standard

Intro/Verse

Only Play the pick ups written before the repeat into the INTRO and OUTRO.

     Abm  Am    Bbm             Gb              Db               Eb
e|------------||-------------------------------------------------------------------------------|
B|----4----5--||.---6-----6-----6---2-----2-----2----6-----6-----6----8-----8-----8------------|
G|------------||-----6-----6---------3-----3----------6-----6----------8-----8-----------------|
D|------------||-------------------------------------------------------------------------------|
A|------------||.-----------------------------------4-----4-----4---6-----6-----6--------------|
E|--4----5----||- 6-----6-----6--- 2-----2-----2-----------------------------------------------|
   
    Bbm                                F                      Abm   Am
e|-----------------------------------------------------------------------||
B|----6-----6-----6----6-----6-----6----1-----1-----1---1------4---5----.||
G|------6-----6----------6-----6----------2-----2---------2--------------|| Repeat 4 More Times
D|-----------------------------------------------------------------------||
A|----------------------------------------------------------------------.||
E|--6-----6-----6----6-----6-----6----1-----1-----1---1------4---5-------||





Chorus (Not plucked)

     Bbm    Gb    Db    Ab
e|----6-----2-----------4-----------|
B|----6-----2-----6-----4-----------| Play Twice Through (2 beats per chord)
G|----6-----3-----6-----5-----------|
D|----8-----4-----6-----6-----------|
A|----8-----4-----4-----6-----------|
E|----6-----2-----------4-----------|

      Gb   Bbm    Db    F     F
e|----2-----6-----9-----1-----1------|
B|----2-----6-----9-----1-----1------|
G|----3-----6-----10----2-----2------| Play Once Through (2 beats per chord)
D|----4-----8-----11----3-----3------|
A|----4-----8-----11----3-----3------|
E|----2-----6-----9-----1-----1------|



            
Submit corrections


        Modern Jesus lessons Hard to play? Try these video lessons and learn fast Modern Jesus lessons
        
↑ Back to top | Tablatures and chords for acoustic guitar and electric guitar, ukulele, drums are parodies/interpretations of the original songs. You may use it for private study, scholarship, research or language learning purposes only