» » »

Portugal The Man - Mornings Tabs

Artists:  A B C D E F G H I J K L M N O P Q R S T U V W X Y Z # 

Mornings Tabs

(ver. 1) Click to play this song!
Portugal The Man
 Rating:
4.6/5 (11 votes)

 Mornings lessons Tabs too difficult? Try these video lessons and learn fast
 
                -5/7\5--5--2------5-------5/7-10-12--5---5-7--10----------|
-5/7\5--5--3--5/7---7-5-----------------------------------|
----------------------------------------------------------|
----------------------------------------------------------|
----------------------------------------------------------|
----------------------------------------------------------|


-5/7--5--2-------5----------------------------------------|
-5/7--5--3---5/7---7-5------------------------------------|
----------------------------------------------------------|
-----------------------2-4\2-0---0--2/4-2-0----2/4-2-0----|
-------------------------------2------------2-------------|
----------------------------------------------------------|


----------------------------------5/7---5--5/7---5--5/7---|
----------------------------------5/7\5----5/7\5----5/7\5-|
----------------------------------------------------------|
-2-4\2-0---0--2/4-2-0----2/4-2-0--------------------------|
---------2------------2-----------------------------------|
----------------------------------------------------------|

-5/7---5-5/7-5--5-5/7-10/12-10--5/7--10/12-----7--6--5--4-|
-5/7\5----------5-5/7-------------------------------------|
----------------------------------------------------------|
----------------------------------------------------------|
----------------------------------------------------------|
----------------------------------------------------------|


G G G G

  Bm                        G
mornings go best with the sunrise
     E
the sunrise i used to see
            Bm                  G               A
i'll never see now and if i was waiting we'd build it all up
       G                     E
we'd look all around till we found we found

  Bm
the people found the mountain
       E
climbed up from that hole in the ground
                          Bm
through that crack in the sky threatened to fall
             E
still, i don't believe, i don't believe
 G            E
we'll be just fine
  Bm          G
we'll be just fine

G G G G

  Bm                        G
the future was born with the sunrise
 Em
the sunrise spilled into days
             Bm                      G           A
and even more years passed he rode further burning up trails
      G                        E
we looked all around till we found we found

  Bm
the people found the mountain
       E
climbed up from that hole in the ground
                          Bm
through that crack in the sky threatened to fall
             E
still, i don't believe, i don't believe
 G            E
we'll be just fine
  Bm          G
we'll be just fine


-------------5/7-5---5/7-5-------5/7-5-----5/7-5-----------|
-3--3-5--5-7-------7-------7--3--------7-3-------7-3/5\3---|
-----------------------------------------------------------|
-----------------------------------------------------------|
-----------------------------------------------------------|
-----------------------------------------------------------|

-------------5/7-5---5/7-5------5/7-5------5/7-5-----------|
-3-5--5-7--7-------7-------7-3--------7-3--------7-3/5\3---|
-----------------------------------------------------------|
-----------------------------------------------------------|
-----------------------------------------------------------|
-----------------------------------------------------------|

Chords used for the rest of the song:


 D  Daug  Bm/d   X   G
-2---2-----2-----2---3-----------------------------------------|
-3---3-----3-----3---0-----------------------------------------|
-2---3-----4-----5---0-----------------------------------------|
-0---0-----0-----0---0-----------------------------------------|
---------------------2-----------------------------------------|
---------------------3-----------------------------------------|


the sun, it rose
up from the belly of sea
found its bedding up in those clouds
it hung for years
still, i don't believe
while colors rained
and poured from the cotton-bound pools in the drips
those drips stained us all
still, i don't believe

the people found the mountain
climbed up from that hole in the ground
through that crack in the sky
i don't believe
i don't believe
the people found the mountain
climbed up from that hole in the ground
through the crack in the sky
i don't believe, i don't believe
and we'll be just fine
we'll be just fine
we'll be just fine
i don't believe
no, i don't believe
no, i don't believe
            
Submit corrections


        Mornings lessons Hard to play? Try these video lessons and learn fast Mornings lessons
        
↑ Back to top | Tablatures and chords for acoustic guitar and electric guitar, ukulele, drums are parodies/interpretations of the original songs. You may use it for private study, scholarship, research or language learning purposes only