» » »

Portugal The Man - Salt Tabs

Artists:  A B C D E F G H I J K L M N O P Q R S T U V W X Y Z # 

Salt Tabs

(ver. 1) Click to play this song!
Portugal The Man
 Rating:
3.5/5 (8 votes)

 Salt lessons Tabs too difficult? Try these video lessons and learn fast
 
                
I Pretty Much Just watched him Play it.

---7-------5-------3-----10---10-------10---10---------------|
---7-------5-------3-----10------10------------10------------|
---7-------6-------4-----11---------11------------11---------|
-9-9--9-7--7--7-5--5-----12----------------------------------|
-------------------------------------------------------------|
-------------------------------------------------------------|

and repeat that as much as you can

Then The Chords are:

----7---5---3---10--------|
----7---5---3---10--------|
----7---6---4---11--------|
----9---7---5---12--------|
----9---7---5---12--------|
----7---5---3---10--------|


Bridge:

"Do you hear the wind child..."

----7---7--|------------5---------------|
----7---7--|------------5---------------|
----7---6--|------------6---------------|
----9---7--|------------5---------------|
----9---7--|------------7---------------|
----7---5--|--(end-in)--5---------------|

Enjoy. :)
            
Submit corrections


        Salt lessons Hard to play? Try these video lessons and learn fast Salt lessons
        
↑ Back to top | Tablatures and chords for acoustic guitar and electric guitar, ukulele, drums are parodies/interpretations of the original songs. You may use it for private study, scholarship, research or language learning purposes only