» » »

Portugal The Man - The Pines Bass

Artists:  A B C D E F G H I J K L M N O P Q R S T U V W X Y Z # 

The Pines Bass

(ver. 1) Click to play this song!
Portugal The Man
 Rating:
4/5 (4 votes)

 The Pines lessons Tabs too difficult? Try these video lessons and learn fast
 
                I'm fairly sure it's all right. done.

Intro
|---------------------------------------------|
|---------------------------------------------|
|--3----1-------------------------------------|
|-----------1------3---------1-3----1-3---1-3-|


Verse
|---------------------------------------------|
|-----3-------------3h5----3------------------|
|------1--3----3h5-----------1--3----3--------|
|---3---------------------3--------------1----|

Bridge?

|---------------------------------------|
|----3h6--------------------------------|
|--------3p1-1--------------------------|
|(3)---------------11---3---------------|


Verse
|---------------------------------------------|
|-----3-------------3h5----3------------------|
|------1--3----3h5-----------1--3----3--------|
|---3---------------------3--------------1----|

bridge
|---------------------------------|
|----3h6--------------------------|
|--------3p1-1--------------------|
|(3)---------------11---3---------|


build up (is it necessary to put this?)
|--------------------------------------------|
|--------------------------------------------|
|--------------------------------------------|
|---333333333333333333333333333333333333-----|

Whatever-the-f**k-you-want-to-call-this

|---------3-----------------------------------|
|----3h5----5-3-------------------------------|
|----------------5-3\1-----1/3h5--------------| x3
|--3--------------------1h3-------------------|


|----------------345----------------------------|
|-----------345---------------------------------|
|----123345-------------------------------------|
|123--------------------------------------------|




stevenconnor
            
Submit corrections


        The Pines lessons Hard to play? Try these video lessons and learn fast The Pines lessons
        
↑ Back to top | Tablatures and chords for acoustic guitar and electric guitar, ukulele, drums are parodies/interpretations of the original songs. You may use it for private study, scholarship, research or language learning purposes only