» » »

New Found Glory - Its Not Your Fault Tabs

Artists:  A B C D E F G H I J K L M N O P Q R S T U V W X Y Z # 

Its Not Your Fault Tabs

(ver. 2) Click to play this song!
New Found Glory
 Rating:
4/5 (4 votes)

 Its Not Your Fault lessons Tabs too difficult? Try these video lessons and learn fast
 
                -------------------------------------------------------------------------------
                      It's Not Your Fault - New Found Glory
-------------------------------------------------------------------------------

Tuning: Standard (EADGBe)

The new New Found Glory song from their new album "Coming Home" out in September,
i couldn't be bothered to finish the second guitar part in the end so just left it
out!

7
5 this bit in the bridge, i'm not actually sure about that, besides the pick
scratch at the end of it, i was just guessing really, i thought it might be that
chord palm muted, but then as the snare got louder i thought it was just the snare,
i dunno, so i took a guess! Enjoi...

1.--¬ - play this first time around and 2.--¬ the second time!

Intro

  Piano
e|---------------------------------------------------------------------------|
B|---------------------------------------------------------------------------|
G|--9----------------9-----------------9---------------9---------------------|
D|----11-9-11-9-7------11-9-11-9-7-------11-9-11-9-7-----11-9-11-9-7---------|
A|---------------------------------------------------------------------------|
E|5---------------10-----------------2---------------------------------------|


  
  Rhy. Fig. 1                                                            
e|---------------------------------------------------------------------------|
B|---------------------------------------------------------------------------|
G|--------------------------------7-7-7-7-7-7-7-7-7-7-7-7-7-7-7-7------------|
D|7-7-7-7-7-7-7-7-7-7-7-7-7-7-7-7-7-7-7-7-7-7-7-7-7-7-7-7-7-7-7-7-4-4-4-4-4-4|
A|7-7-7-7-7-7-7-7-7-7-7-7-7-7-7-7-5-5-5-5-5-5-5-5-5-5-5-5-5-5-5-5-4-4-4-4-4-4|
E|5-5-5-5-5-5-5-5-5-5-5-5-5-5-5-5---------------------------------2-2-2-2-2-2|
 

                                         End Rhy. Fig. 1
e|---------------------------------------------------------------------------|
B|---------------------------------------------------------------------------|
G|--------------------7-7-7--7-7-7--7-7-7--7-7-7-----------------------------|
D|4-4-2-2-2-2-2-2-2-2-7-7-7--7-7-7--7-7-7--7-7-7--777777---------------------|
A|4-4-2-2-2-2-2-2-2-2-5-5-5--5-5-5--5-5-5--5-5-5--555555---------------------|
E|2-2-0-0-0-0-0-0-0-0--------------------------------------------------------|
                                                  PM---|

Verse                               
e|---------------------------------------------------------------------------|
B|---------------------------------------------------------------------------|
G|---------------------------------------------------------------------------|
D|---------------------------------------------------------------------------|
A|--------------------------------55555555555555555555555555555555-----------|
E|55555555555555555555555555555555---------------------------------(x2)------|
  PM-------------------------------------------------------------|

                     
                                     1.-----------------------------¬                  
                              
e|¦¦-----------------------------------------------------------------------¦¦|
B|¦¦o---------------------------------------------------------------------o¦¦|
G|¦¦-----------------------------------------------------------------------¦¦|
D|¦¦-----------------------------------------------------------------------¦¦|
A|¦¦o---------------------------------------------------------------------o¦¦|
E|¦¦-2222222222222222222222222222222200000000000000000000000000000000------¦¦|
     PM-------------------------------------------------------------|

                   
  2.-----------------------------¬
  
e|---------------------------------------------------------------------------|
B|---------------------------------------------------------------------------|
G|----------------7-7-7-7----------------------------------------------------|
D|2-2-2-2-2-2-2-2-7-7-7-7-xxxxxxxx-------------------------------------------|
A|2-2-2-2-2-2-2-2-5-5-5-5-xxxxxxxx-------------------------------------------|
E|0-0-0-0-0-0-0-0------------------------------------------------------------|


Chorus  
  Rhy. Fig. 2                                     End Rhy. Fig. 2 (x2)                           
e|---------------------------------------------------------------------------|
B|---------------------------------------------------------------------------|
G|--------------------------------7-7-7-7-7-7-7-7-7-7-7-7-7-7-7-7------------|
D|7-7-7-7-7-7-7-7-7-7-7-7-7-7-7-7-7-7-7-7-7-7-7-7-7-7-7-7-7-7-7-7------------|
A|7-7-7-7-7-7-7-7-7-7-7-7-7-7-7-7-5-5-5-5-5-5-5-5-5-5-5-5-5-5-5-5------------|
E|5-5-5-5-5-5-5-5-5-5-5-5-5-5-5-5--------------------------------------------|

Rhy. Fig. 1

Verse 
Chorus

Bridge
  Rhy. Fig. 3                                     End Rhy. Fig. 3 (x2)
e|---------------------------------------------------------------------------|
B|---------------------------------------------------------------------------|
G|--------------------------------7-7-7-7-7-7-7-7-7-7-7-7-7-7-7-7------------|
D|4-4-4-4-4-4-4-4-2-2-2-2-2-2-2-2-7-7-7-7-7-7-7-7-7-7-7-7-7-7-7-7------------|
A|4-4-4-4-4-4-4-4-2-2-2-2-2-2-2-2-5-5-5-5-5-5-5-5-5-5-5-5-5-5-5-5------------|
E|2-2-2-2-2-2-2-2-0-0-0-0-0-0-0-0--------------------------------------------|


e|---------------------------------------------------------------------------|
B|---------------------------------------------------------------------------|
G|---------------------------------------------------------------------------|
D|--------------------------------7-7-7-7-7-7-7-7-7-7-7-7-7-7-7-7------------|
A|7-7-7-7-7-7-7-7-7-7-7-7-7-7-7-7-5-5-5-5-5-5-5-5-5-5-5-5-5-5-5-5------------|
E|5-5-5-5-5-5-5-5-5-5-5-5-5-5-5-5--------------------------------------------|
  PM------------------------------------------------------|

e|---------------------------------------------------------------------------|
B|---------------------------------------------------------------------------|
G|--------------------------------------------7-7----------------------------|
D|----------------------------7-7-7-7-7-7-7-7-7-7----------------------------|
A|7-7-7-7-7-7-7-7-7-7-7-7-7-7-7-7-5-5-5-5-5-5-5-5----------------------------|
E|5-5-5-5-5-5-5-5-5-5-5-5-5-5-5-5-------------------P.S.x\\\\\\\\------------|
  PM--------------------|         PM----| 

Chorus - Rhy. Fig. 2 (x3)
         Rhy. Fig. 3

Outro

  Riff A                End Riff A (x3)
e|---------------------------------------------------------------------------|
B|---------------------------------------------------------------------------|
G|---------------------------------------------------------------------------|
D|----------------------------------------------------------7----------------|
A|----------------------------------------------------------x----------------|
E|55555555555555555555555555555555---------5555555555555555-5----------------|
  PM-----------------------------|         PM-------------|


| P.S. Pick Scratch
| x  Mute note
===============================================================================
            
Submit corrections


        Its Not Your Fault lessons Hard to play? Try these video lessons and learn fast Its Not Your Fault lessons
        
↑ Back to top | Tablatures and chords for acoustic guitar and electric guitar, ukulele, drums are parodies/interpretations of the original songs. You may use it for private study, scholarship, research or language learning purposes only