» » »

New Found Glory - Its Not Your Fault Bass

Artists:  A B C D E F G H I J K L M N O P Q R S T U V W X Y Z # 

Its Not Your Fault Bass

(ver. 1) Click to play this song!
New Found Glory
 Rating:
4/5 (4 votes)

 Its Not Your Fault lessons Tabs too difficult? Try these video lessons and learn fast
 
                this is the first single from coming home!!! not tabbed yet so i thought i would!!!
yes i know the bass doesnt play the piano, but i put it in, just for the fun of it!!! 
it is the same as the guitar tab)
but the bass line for the actual song is very simple and is basically the route chords 
the guitar!!!
ive added some strokes (if using pick) for the chorus as it just sounds like thats the 
its played in the song, if you listen carefully!!!

d = downstroke
u = upstroke
f = fast

Piano (right hand)
|--9---------------9--------------9-------------|
|----11-9-11-9-7-----11-9-11-9-7----11-9-11-9-7-|
|-----------------------------------------------|
|-----------------------------------------------|

Pianno (left hand)
|----------------------------------|
|----------------------------------|
|----------------------------------|
|-55555555101010101010101022222222-|

Intro
|-------------------------------------------------------------|
|-------------------------------------------------------------|
|-----------------5555555555555555----------------55-55-55-55-|
|-5555555555555555----------------2222222200000000------------|

Verse
|--------------------------------------->
|--------------------------------------->
|-------5(x16)------5(x16)-------------->
|-5(x16)------5(x16)------2(x16)-0(x16)->

<-------------------------------------|
<-------------------------------------|
<----------------55-55-55-55-12121212-|
<-22-22-22-22-22----------------------|
                             ffffffff

Chorus
|------------------------------------|
|------------------------------------|
|-----------------55-55-55-55-555555-|
|-555555555555555--------------------|x2
  ddudddudddudddu             ffffff

Intro
Verse
Chorus x2

Bridge pt.1
|--------------------------------->
|--------------------------------->
|-----------------555555555555555->
|-2222222200000000---------------->

Bridge pt.2
<---------------------------------->
<---------------------------------->
<-----------------5555555555555555->
<-5555555555555555----------------->

Bridge pt.3
<--------------------------|
<--------------------------|
<-----------------55555555-|
<-5555555555555555---------|

Chorus x3
Bridge pt.1 x1
Piano (right & left Hand)
End On |---|
       |-9-|
       |---|
       |---|
            
Submit corrections


        Its Not Your Fault lessons Hard to play? Try these video lessons and learn fast Its Not Your Fault lessons
        
↑ Back to top | Tablatures and chords for acoustic guitar and electric guitar, ukulele, drums are parodies/interpretations of the original songs. You may use it for private study, scholarship, research or language learning purposes only