» » »

New Found Glory - Its Not Your Fault Tabs

Artists:  A B C D E F G H I J K L M N O P Q R S T U V W X Y Z # 

Its Not Your Fault Tabs

(ver. 1) Click to play this song!
New Found Glory
 Rating:
4/5 (4 votes)

 Its Not Your Fault lessons Tabs too difficult? Try these video lessons and learn fast
 
                -------------------------------------------------------------------------------
                     New Found Glory - It's Not Your Fault
-------------------------------------------------------------------------------
Piano 1 by Guitar-Tuning: Standard (EADGBe)
 Create by bloodred16
  Edit by Wki

Intro(Piano)                                                              End
e|----------------------------------------------------------------------------|
B|----------------------------------------------------------------------------|
G|---9--------------9--------------9--------------9---------------------------|
D|-----11-9-11-9-7----11-9-11-9-7----11-9-11-9-7----11-9-11-9-7---------------|
A|----------------------------------------------------------------------------|
E|----------------------------------------------------------------------------|
Piano 2 by Guitar-Tuning: Drop D (DADGBe)

Intro(Piano)                                                              End
e|----------------------------------------------------------------------------|
B|----------------------------------------------------------------------------|
G|----------------------------------------------------------------------------|
D|----------------------------------------------------------------------------|
A|----------------------------------------------------------------------------|
D|7-7-7-7-7-7-7-7-12-12-12-12-12-12-12-12-4-4-4-4-2-2-2-2-0-0-0-0-0-0-0-5-5-5-|

-------------------------------------------------------------------------------
Guitar 1-Tuning: Standard (EADGBe)

Intro
  Rhy. Fig.1
e|----------------------------------------------------------------------------|
B|----------------------------------------------------------------------------|
G|9-9-9----------------------------------7-7-7-7-7-7-7-7-7-7-7-7-7-7-7-7------|
D|9-9-9--7-7-7-7-7-7-7-7-7-7-7-7-7-7-7-7-7-7-7-7-7-7-7-7-7-7-7-7-7-7-7-7------|
A|7-7-7--7-7-7-7-7-7-7-7-7-7-7-7-7-7-7-7-5-5-5-5-5-5-5-5-5-5-5-5-5-5-5-5------|
E|-------5-5-5-5-5-5-5-5-5-5-5-5-5-5-5-5--------------------------------------|

                                                               End Rhy. Fig.1
e|----------------------------------------------------------------------------|
B|----------------------------------------------------------------------------|
G|--------------------------------7-7-7--7-7-7--7-7-7--7-7-7------------------|
D|4-4-4-4-4-4-4-4-2-2-2-2-2-2-2-2-7-7-7--7-7-7--7-7-7--7-7-7--xxxxxxxxx-------|
A|4-4-4-4-4-4-4-4-2-2-2-2-2-2-2-2-5-5-5--5-5-5--5-5-5--5-5-5--xxxxxxxxx-------|
E|2-2-2-2-2-2-2-2-0-0-0-0-0-0-0-0---------------------------------------------|

Verse
  Rhy. Fig.2
e|---------------------------------------------------------------------------||
B|---------------------------------------------------------------------------||
G|---------------------------------------------------------------------------||
D|---------------------------------------------------------------------------||
A|-------------------------------5555555555555555555555555555555-x2----------||
E|5555555555555555555555555555555--------------------------------------------||
PM--------------------------------------------------------------|

                                                               End Rhy. Fig.2
e|----------------------------------------------------------------------------|
B|----------------------------------------------------------------------------|
G|----------------------------------------------------------------------------|
D|----------------------------------------------------------------------------|
A|----------------------------------------------------------------------------|
E|22222222222222222222222222222220000000000000000000000000000000--------------|
PM--------------------------------------------------------------|

  Rhy. Fig.3                                                   End Rhy. Fig.3
e|----------------------------------------------------------------------------|
B|----------------------------------------------------------------------------|
G|------------------------------------------------7-7-7-7-7-------------------|
D|--------------------------------2-2-2-2-2-2-2-2-7-7-7-7-7-xxxxxxx-----------|
A|--------------------------------2-2-2-2-2-2-2-2-5-5-5-5-5-xxxxxxx-----------|
E|2222222222222222222222222222222-0-0-0-0-0-0-0-0-----------------------------|
PM-------------------------------|

Chorus
  Rhy. Fig.4                                                   End Rhy. Fig.4
e|----------------------------------------------------------------------------|
B|----------------------------------------------------------------------------|
G|--------------------------------7-7-7-7-7-7-7-7-7-7-7-7-7-7-7-7-------------|
D|7-7-7-7-7-7-7-7-7-7-7-7-7-7-7-7-7-7-7-7-7-7-7-7-7-7-7-7-7-7-7-7-------------|
A|7-7-7-7-7-7-7-7-7-7-7-7-7-7-7-7-5-5-5-5-5-5-5-5-5-5-5-5-5-5-5-5-------------|
E|5-5-5-5-5-5-5-5-5-5-5-5-5-5-5-5---------------------------------------------|

Chorus
  Rhy. Fig.5                                                   End Rhy. Fig.5
e|----------------------------------------------------------------------------|
B|----------------------------------------------------------------------------|
G|--------------------------------7-7-7-7-7-7-7-7-7-7-7-7-7-7-7-7-------------|
D|4-4-4-4-4-4-4-4-2-2-2-2-2-2-2-2-7-7-7-7-7-7-7-7-7-7-7-7-7-7-7-7-------------|
A|4-4-4-4-4-4-4-4-2-2-2-2-2-2-2-2-5-5-5-5-5-5-5-5-5-5-5-5-5-5-5-5-------------|
E|2-2-2-2-2-2-2-2-0-0-0-0-0-0-0-0---------------------------------------------|

  Rhy. Fig.6                                                   End Rhy. Fig.6
e|----------------------------------------------------------------------------|
B|----------------------------------------------------------------------------|
G|--------------------------------7-7-7--7-7-7--7-7-7--7-7-7--9-9-9-9-9-9-----|
D|4-4-4-4-4-4-4-4-2-2-2-2-2-2-2-2-7-7-7--7-7-7--7-7-7--7-7-7--9-9-9-9-9-9-----|
A|4-4-4-4-4-4-4-4-2-2-2-2-2-2-2-2-5-5-5--5-5-5--5-5-5--5-5-5--7-7-7-7-7-7-----|
E|2-2-2-2-2-2-2-2-0-0-0-0-0-0-0-0---------------------------------------------|

Bridge
  Rhy. Fig.7
e|----------------------------------------------------------------------------|
B|----------------------------------------------------------------------------|
G|----------------------------------------------------------------------------|
D|--------------------------------7-7-7-7-7-7-7-7-7-7-7-7-7-7-7-7-------------|
A|7-7-7-7-7-7-7-7-7-7-7-7-7-7-7-7-5-5-5-5-5-5-5-5-5-5-5-5-5-5-5-5-------------|
E|5-5-5-5-5-5-5-5-5-5-5-5-5-5-5-5---------------------------------------------|
PM- - - - - - - - - - - - - - - - - - - - - - - - - - - - - - - -|

                                                               End Rhy. Fig.7
e|----------------------------------------------------------------------------|
B|----------------------------------------------------------------------------|
G|--------------------------------------------7-7-----------------------------|
D|----------------------------7-7-7-7-7-7-7-7-7-7-----------------------------|
A|7-7-7-7-7-7-7-7-7-7-7-7-7-7-7-7-5-5-5-5-5-5-5-5-----------------------------|
E|5-5-5-5-5-5-5-5-5-5-5-5-5-5-5-5-------------------P.S.\\\\\\\\\-------------|
PM- - - - - - - - - - - - - - - - - - - - - - - -|

Outro
  Rhy. Fig.8                                                   End Rhy. Fig.8
e|-----------------------------------------------------------------||---------|
B|-----------------------------------------------------------------||---------|
G|-----------------------------------------------------------------||---------|
D|-----------------------------------------------------------------||7--------|
A|-----------------------------------------------------------------||x--------|
E|55555555555555555555555555555555555555555555555555555555555555-x2||5--------|
PM--------------------------------------------------------------|

1.Intro-Rhy. Fig.1→Verse-Rhy. Fig.2→Verse-Rhy. Fig.3→Chorus-Rhy. Fig.4(x2)
2.Intro-Rhy. Fig.1→Verse-Rhy. Fig.2→Verse-Rhy. Fig.3→Chorus-Rhy. Fig.4(x2)
  →Chorus-Rhy. Fig.5→Chorus-Rhy. Fig.6
3.Bridge-Rhy. Fig.7→Chorus-Rhy. Fig.4(x3)→Outro-Rhy. Fig.8
-------------------------------------------------------------------------------
Guitar 2-Tuning: Standard (EADGBe)

Intro/Chorus
  Riff.A
e|--------------------------------------------------------------------------------|
B|--------------------------------------------------------------------------------|
G|14-14-14-14-14-14-14-14//9-9//11-11-11-11-11-11-11-11-11------------------------|
D|-x--x--x--x--x--x--x--x--x-x---x--x--x--x--x--x--x--x--x------------------------|
A|12-12-12-12-12-12-12-12//7-7//-9--9--9--9--9--9--9--9--9------------------------|
E|--------------------------------------------------------------------------------|

                                                                    End Rif.A
e|--------------------------------------------------------------------------------|
B|--------------------------------------------------------------------------------|
G|14-14-14-14-14-14-14-14/13-13-13-13-13-13//9-9//11-11-11-11-11-11-11------------|
D|-x--x--x--x--x--x--x--x--x--x--x--x--x--x--x-x---x--x--x--x--x--x--x--xxxxxxxxx-|
A|12-12-12-12-12-12-12-12/11-11-11-11-11-11//7-7//-9--9--9--9--9--9--9--xxxxxxxxx-|
E|--------------------------------------------------------------------------------|

Verse
  Riff.B
e|-------------------------------------------------------------------------------||
B|-------------------------------------------------------------------------------||
G|-------------------------------------------------------------------------------||
D|-------------------------------------------------------------------------------||
A|-------------------------------5555555555555555555555555555555-x2--------------||
E|5555555555555555555555555555555------------------------------------------------||
PM--------------------------------------------------------------|

                                                                    End Rif.B
e|--------------------------------------------------------------------------------|
B|--------------------------------------------------------------------------------|
G|--------------------------------------------------------------------------------|
D|--------------------------------------------------------------------------------|
A|--------------------------------------------------------------------------------|
E|22222222222222222222222222222220000000000000000000000000000000------------------|
PM--------------------------------------------------------------|

  Riff.C                                                            End Rif.C
e|--------------------------------------------------------------------------------|
B|--------------------------------------------------------------------------------|
G|------------------------------------------------7-7-7-7-7-----------------------|
D|--------------------------------2-2-2-2-2-2-2-2-7-7-7-7-7-xxxxxxx---------------|
A|--------------------------------2-2-2-2-2-2-2-2-5-5-5-5-5-xxxxxxx---------------|
E|2222222222222222222222222222222-0-0-0-0-0-0-0-0---------------------------------|
PM-------------------------------|

Chorus
  Riff.D                                                           End Riff.D
e|--------------------------------------------------------------------------------|
B|--------------------------------------------------------------------------------|
G|14-14-14-14-14-14-14-14//9-9-9--------------------------------------------------|
D|-x--x--x--x--x--x--x--x--x-x----11--9-7-11--11-11-9-7---------------------------|
A|12-12-12-12-12-12-12-12//7-7----------------------------------------------------|
E|--------------------------------------------------------------------------------|

Chorus
  Riff.E
e|--------------------------------------------------------------------------------|
B|17---------17-------------------------------------------------------------------|
G|------14---------14-14-14-14-14-14-14-14-14-14-14-14-14-------------------------|
D|---------------------x--x--x--x--x--x--x--x--x--x--x--x-------------------------|
A|--------------------12-12-12-12-12-12-12-12-12-12-12-12-------------------------|
E|--------------------------------------------------------------------------------|

e|--------------------------------------------------------------------------------|
B|--------------------------------------------------------------------------------|
G|--------------------------------------------------------------------------------|
D|------14-------14---------------------------------------------------------------|
A|---14-------14-------14---------------------------------------------------------|
E|17-------17-------17------------------------------------------------------------|

                                                                   End Riff.E
e|--------------------------------------------------------------------------------|
B|--------------------------------------------------------------------------------|
G|--------------------------------------------------------------------------------|
D|--------------------------------------------------------------------------------|
A|11-12-14-11-12-14-9-12-12-11-9-12-11-9-9-11-12-11-12-14-11-12-14-11-12----------|
E|--------------------------------------------------------------------------------|

Bridge
  Riff.F
e|--------------------------------------------------------------------------------|
B|--------------------------------------------------------------------------------|
G|--------------------------------------------------------------------------------|
D|--------------------------------7-7-7-7-7-7-7-7-7-7-7-7-7-7-7-7-----------------|
A|7-7-7-7-7-7-7-7-7-7-7-7-7-7-7-7-5-5-5-5-5-5-5-5-5-5-5-5-5-5-5-5-----------------|
E|5-5-5-5-5-5-5-5-5-5-5-5-5-5-5-5-------------------------------------------------|
PM- - - - - - - - - - - - - - - - - - - - - - - - - - - - - - - -|

                                                                   End Riff.F
e|--------------------------------------------------------------------------------|
B|--------------------------------------------------------------------------------|
G|--------------------------------------------7-7---------------------------------|
D|----------------------------7-7-7-7-7-7-7-7-7-7---------------------------------|
A|7-7-7-7-7-7-7-7-7-7-7-7-7-7-7-7-5-5-5-5-5-5-5-5---------------------------------|
E|5-5-5-5-5-5-5-5-5-5-5-5-5-5-5-5-------------------P.S.\\\\\\\\\-----------------|
PM- - - - - - - - - - - - - - - - - - - - - - - -|

Chorus
  Riff.G
e|--------------------------------------------------------------------------------|
B|--------------------------------------------------------------------------------|
G|14-14-14-14-14-14-14-14//9-9//11-11-11-11-11-11-11-11-11------------------------|
D|-x--x--x--x--x--x--x--x--x-x---x--x--x--x--x--x--x--x--x------------------------|
A|12-12-12-12-12-12-12-12//7-7//-9--9--9--9--9--9--9--9--9------------------------|
E|--------------------------------------------------------------------------------|

                                                                    End Rif.G
e|--------------------------------------------------------------------------------|
B|--------------------------------------------------------------------------------|
G|14-14-14-14-14-14-14-14/13-13-13-13-13-13//9-9//11-11-11-11-11-11-11--13-13-13--|
D|-x--x--x--x--x--x--x--x--x--x--x--x--x--x--x-x---x--x--x--x--x--x--x---x--x--x--|
A|12-12-12-12-12-12-12-12/11-11-11-11-11-11//7-7//-9--9--9--9--9--9--9--11-11-11--|
E|--------------------------------------------------------------------------------|

Outro
  Riff.H                                                           End Riff.H
e|------------------------------------------------------------------||------------|
B|------------------------------------------------------------------||------------|
G|------------------------------------------------------------------||------------|
D|------------------------------------------------------------------||7-----------|
A|------------------------------------------------------------------||x-----------|
E|55555555555555555555555555555555555555555555555555555555555555-x2-||5-----------|
PM--------------------------------------------------------------|

1.Intro-Riff.A→Verse-Riff.B→Verse-Riff.C→Chorus-Riff.D(x2)
2.Intro-Riff.A→Verse-Riff.B→Verse-Riff.C→Chorus-Riff.D(x2)
  →Chorus-Riff.E
3.Bridge-Riff.F→Chorus-Rhy. Fig.4(x2)→Chorus-Rif.G→Outro-Riff.H
-------------------------------------------------------------------------------------
|[PM-| ]:Palm Mute
|[  /  ]:slide up
|[  x  ]:Mute note
|[P.S.\] Pick Scratch
            
Submit corrections


        Its Not Your Fault lessons Hard to play? Try these video lessons and learn fast Its Not Your Fault lessons
        
↑ Back to top | Tablatures and chords for acoustic guitar and electric guitar, ukulele, drums are parodies/interpretations of the original songs. You may use it for private study, scholarship, research or language learning purposes only