» » »

New Found Glory - (Everything I Do) I Do It For You Tabs

Artists:  A B C D E F G H I J K L M N O P Q R S T U V W X Y Z # 

(Everything I Do) I Do It For You Tabs

(ver. 1) Click to play this song!
New Found Glory
 Rating:
4/5 (4 votes)

 (Everything I Do) I Do It For You lessons Tabs too difficult? Try these video lessons and learn fast
 
                I tried my hand at tabbing this song.  Listen to song for timing.


New Found Glory-(Everything I Do) I Do It For You

Guitar 1 Intro
E-------------------------------------4-4------------------2-2------------
B--6---6---6---7-9-7-6--4---4---4---7-----4--2---2---2---2-----2-4/6--4-4-
G----6---6---6------------5---5---5------------3---3---3--------------5-5-
D-------------------------------------------------------------------------
A-------------------------------------------------------------------------
E-------------------------------------------------------------------------

Guitar 1 & 2 Verse
E-----------------------------------------------------------------------
B-----------------------------------------------------------------------
G--6----6--------------6----6---------6-------8-xx-6-xx-8-xx-6-8-xx-6-8-
D--6----6----8----6----6----6----4----6--6----8-xx-6-xx-8-xx-6-8-xx-6-8-
A--4----3----8----6----4----3----4----4--6----6-xx-4-xx-6-xx-4-6-xx-4-6-
E------------6----4--------------2-------4------------------------------

Guitar 1 & 2 Pre-Chorus
E-----------------------
B-----------------------
G--6----6----6----6-6-6-
D--6----6----6----6-6-6-
A--4----3----4----4-4-4-
E-----------------------

Guitar 1 & 2 Chorus (Guitar 2 Pick Screeches as Lead in)
E->>>>>>---------------------------------------------------------------------------------
B----------------------------------------------------------------------------------------
G-------66666666-66666666-----------------------66666666-66666666----------666666--------
D-------66666666-66666666-88888888-xx6xx6xx6xx6-66666666-66666666-44444444-666666-666666-
A-------44444444-33333333-88888888-xx6xx6xx6xx6-44444444-33333333-44444444-444444-666666-
E-------------------------66666666-xx4xx4xx4xx4-------------------22222222--------444444-

Guitar 1 & 2 Verse
E----------------------------
B----------------------------
G--8-xx-6-xx-8-xx-6-8-xx-6-8-
D--8-xx-6-xx-8-xx-6-8-xx-6-8-
A--6-xx-4-xx-6-xx-4-6-xx-4-6-
E----------------------------

Guitar 1 & 2 Pre-Chorus
E-----------------------
B-----------------------
G--6----6----6----6-6-6-
D--6----6----6----6-6-6-
A--4----3----4----4-4-4-
E-----------------------

Guitar 1 & 2 Chorus
e---------------------------------------------------------------------------------
B---------------------------------------------------------------------------------
G--4444444444------------4444444444------------666666666-----------8888888888-6-6-
D--4444444444-2222222222-4444444444-4444444444-666666666-666666666-8888888888-6-6-
A--2222222222-2222222222-2222222222-4444444444-444444444-666666666-6666666666-4-4-
E-------------0000000000------------2222222222-----------444444444----------------

Guitar 1 Solo
E------------------------------------------9---9h11-9---9h11---------------------
B------------6-66---------------------6----9-9-9----9-9------9h11----------------
G-----------------8-6---6h8-----6-6h8---66------------------------8h10-10-10\8-6-
D--1-3----------------8-----6h8--------------------------------------------------
A------1-4-----------------------------------------------------------------------
E--------------------------------------------------------------------------------

Guitar 2 Solo
E---------------------------------------------------------------
B---------------------------------------------------------------
G---------------------------------------------------------------
D--1-3-----------------1-3------------1-3---------------1-3-----
A------1-4-----------------1-4------------1-4---------------1-4-
E---------------------------------------------------------------

Guitar 1 & 2 Chorus
E-----------------------------------------
B-----------------------------------------
G--66666666--66666666---------------------
D--66666666--66666666--88888888--66666666-
A--44444444--33333333--88888888--66666666-
E----------------------66666666--44444444-

Guitar 1 & 2 Verse
E------------------------
B------------------------
G--6-6---6-6-------------
D--6-6---6-6---8-8---6-6-
A--4-4---3-3---8-8---6-6-
E--------------6-6---4-4-

Guitar 1 Outro
E------------------------------------------------------2-----
B--6---6---6---7-9-7-6--4---4---4----4h6-4—2---2---2h4---2-4-
G----6---6---6------------5---5---5----------3---3-----------
D------------------------------------------------------------
A------------------------------------------------------------
E------------------------------------------------------------

Guitar 2 Outro
E------------------------------------------------------------
B------------------------------------------------------------
G--6--------------------6----------------------------------6-
D--6--------------------6------------------4---------------6-
A--4--------------------3------------------4---------------4-
E------------------------------------------2-----------------
            
Submit corrections


        (Everything I Do) I Do It For You lessons Hard to play? Try these video lessons and learn fast (Everything I Do) I Do It For You lessons
        
↑ Back to top | Tablatures and chords for acoustic guitar and electric guitar, ukulele, drums are parodies/interpretations of the original songs. You may use it for private study, scholarship, research or language learning purposes only