Home » N » New Found Glory »

New Found Glory - (Everything I Do) I Do It For You Bass

Artists:  A B C D E F G H I J K L M N O P Q R S T U V W X Y Z # 

(Everything I Do) I Do It For You Bass

(ver. 1) Click to play this song!
New Found Glory
 Rating:
4/5 (4 votes)
                A New Found Glory
"(Everything I Do) I Do It For You"
Standard Tuning (EADG)

Intro/Verse 1: {0:15}
G--------------------------------------------------------------
D--------------------------------------------------------------
A-4--3--1-----4--3-----4---6-xx4xx6-xx4xx6-xx4xx6-6--4--3--4--4
E----------4--------2---4--------------------------------------


{0:55} Verse 1 **faster**


Verse 2: {1:32}
G------------------------------------------------------
D------------------------------------------------------
A-222222--------222222--------444444-333333-666666-----
E--------000000--------222222----------------------4--4


Verse 3: {1:55}
G------------------------------------------------------------------------------
D------------------------------------------------------------------------------
A--------4-------------4------666666--------666666--------4-4---3-3------------
E-2-------------2--------------------444444--------444444-------------2-2---222


Ending: {2:37}
G-----------
D-----------
A-4--3-----4
E-------2---


Please rate it if you like it. Email Me with any questions.
            
Submit corrections

↑ Back to top | Tablatures and chords for acoustic guitar and electric guitar, ukulele, drums are parodies/interpretations of the original songs. You may use it for private study, scholarship, research or language learning purposes only