» » »

New Found Glory - (Everything I Do) I Do It For You Tabs

Artists:  A B C D E F G H I J K L M N O P Q R S T U V W X Y Z # 

(Everything I Do) I Do It For You Tabs

(ver. 2) Click to play this song!
New Found Glory
 Rating:
4/5 (4 votes)

 (Everything I Do) I Do It For You lessons Tabs too difficult? Try these video lessons and learn fast
 
                

E-------------------------------------------------------------------------------
B--6---6---6-----7--9--7--6--------------------7--9--9--7-------------------
G----6---6---6-----------------8---8---8---------------------6---6---6-------
D---------------------------------10--10--10-------------------8---8---8-----
A-------------------------------------------------------------------------------
E-------------------------------------------------------------------------------

E------------------------------
B--6--7--7--6-----------------
G---------------8---8----8----
D-------------------10--10----
A------------------------------
E-------------------------------

Look into my eyes............

E-------------------------------------------------------
B-------------------------------------------------------
G--6----6-----------------6-----6---------6-------------
D--6----6----8----6-------6-----6----4----6----6--6-----
A--4----3----8----6-------4-----3----4----4----6--6-----
E------------6----4------------------2---------4--4-----

Dont tell me its not worth fightin for.........

E----------------------------------------------
B----------------------------------------------
G--8--66--6--66--8--66--6--8--66--6--8----
D--8--66--6--66--8--66--6--8--66--6--8----
A--6--44--4--44--6--44--4--6--44--4--6----
E----------------------------------------------

You know its true............

E---------------------------
B---------------------------
G--6----6----6----6--6----
D--6----6----6----6--6----
A--4----3----4----4--4----
E---------------------------

E----------------------------------------------------------------------------
B----------------------------------------------------------------------------
G--666666666666--666666666666------------------------------------------------
D--666666666666--666666666666--888888888888--666666666666--------------------
A--444444444444--333333333333--888888888888--666666666666--------------------
E------------------------------666666666666--444444444444--------------------

E------------------------------------------------------------------------------
B------------------------------------------------------------------------------
G--666666666666--666666666666----------------666666----------------------------
D--666666666666--666666666666--444444444444--666666--666666--------------------
A--444444444444--333333333333--444444444444--444444--666666--------------------
E------------------------------222222222222----------444444--------------------


Thats it. Once again when i figure out the solo thing at the end ill post it.
            
Submit corrections


        (Everything I Do) I Do It For You lessons Hard to play? Try these video lessons and learn fast (Everything I Do) I Do It For You lessons
        
↑ Back to top | Tablatures and chords for acoustic guitar and electric guitar, ukulele, drums are parodies/interpretations of the original songs. You may use it for private study, scholarship, research or language learning purposes only