» » »

Neck Deep - What Did You Expect Tabs

Artists:  A B C D E F G H I J K L M N O P Q R S T U V W X Y Z # 

What Did You Expect Tabs

(ver. 1) Click to play this song!
Neck Deep
 Rating:
4.1/5 (24 votes)

 What Did You Expect  lessons Tabs too difficult? Try these video lessons and learn fast
 
                Tuning: Drop-D

Intro/Verse

e|---------------------------------------------------------------------------|
B|---------------------------------------------------------------------------|
G|-9------5------12------7---------------------------------------------------|
D|-x-(x8)-x-(x8)--x-(x8)-x-(x8)----------------------------------------------|
A|-7------3------10------5---------------------------------------------------|
D|---------------------------------------------------------------------------|

e|---------------------------------------------------------------------------|
B|---------------------------------------------------------------------------|
G|-9/10/9-9------5------12------7--------------------------------------------|
D|-x--x-x-x-(x6)-x-(x8)--x-(x8)-x-(x8)---------------------------------------|
A|-7/-8/7-7------3------10------5--------------------------------------------|
D|---------------------------------------------------------------------------|

e|---------------------------------------------------------------------------|
B|---------------------------------------------------------------------------|
G|-10/9~-7-9~---10/9~-7-5~---------------------------------------------------| x3
D|--x-x--x-x-----x----x-x----------------------------------------------------|
A|--8/7~-5-7~----8/7~-5-3~---------------------------------------------------|
D|---------------------------------------------------------------------------|

e|---------------------------------------------------------------------------|
B|---------------------------------------------------------------------------|
G|-10/9~-7-9~-5~-------------------------------------------------------------|
D|--x-x--x-x--x--------------------------------------------------------------|
A|--8-7~-5-7~-3~-------------------------------------------------------------|
D|---------------------------------------------------------------------------|

Pre-Chorus

e|---------------------------------------------------------------------------|
B|---------------------------------------------------------------------------|
G|-9-12-9~-12-10-9~---5-9-5~-------------------------------------------------|
D|-x--x-x---x--x-x----x-x-x--------------------------------------------------|
A|-7-10-7~-10--8-7~---3-7-3~-------------------------------------------------|
D|---------------------------------------------------------------------------|

e|---------------------------------------------------------------------------|
B|---------------------------------------------------------------------------|
G|-5~~~-9~-7~-4~~~-5-9-5~----------------------------------------------------|
D|-x----x--x--x----x-x-x-----------------------------------------------------|
A|-3~~~-7~-5~-2~~~-3-7-3~----------------------------------------------------|
D|---------------------------------------------------------------------------|

Chorus

e|---------------------------------------------------------------------------|
B|---------------------------------------------------------------------------|
G|-9---9---9---9---9~-9~---5---5---5---5---5~-5~-----------------------------|
D|-9---9---9---9---9~-9~---5---5---5---5---5~-5~-----------------------------|
A|-7-7-7-7-7-7-7-7-7~-7~---3-3-3-3-3-3-3-3-3~-3~-----------------------------|
D|---.---.---.---.-----------.---.---.---.-----------------------------------|

e|---------------------------------------------------------------------------|
B|---------------------------------------------------------------------------|
G|-4---4---4---4---4~-4~---5---5---5---5---5~-5~-----------------------------|
D|-4---4---4---4---4~-4~---5---5---5---5---5~-5~-----------------------------|
A|-2-2-2-2-2-2-2-2-2~-2~---3-3-3-3-3-3-3-3-3~-3~-----------------------------|
D|---.---.---.---.-----------.---.---.---.-----------------------------------|

e|---------------------------------------------------------------------------|
B|---------------------------------------------------------------------------|
G|-9---9---9---9---9~-9~---5---5---5---5---5~-5~-----------------------------|
D|-9---9---9---9---9~-9~---5---5---5---5---5~-5~-----------------------------|
A|-7-7-7-7-7-7-7-7-7~-7~---3-3-3-3-3-3-3-3-3~-3~-----------------------------|
D|---.---.---.---.-----------.---.---.---.-----------------------------------|

e|---------------------------------------------------------------------------|
B|---------------------------------------------------------------------------|
G|-4---4---4---4---4~-4~---5~---5~---5~--------------------------------------|
D|-4---4---4---4---4~-4~---5~---5~---5~--------------------------------------|
A|-2-2-2-2-2-2-2-2-2~-2~---3~-3-3~-3-3~--------------------------------------|
D|---.---.---.---.------------.----.-----------------------------------------|

Verse II

e|---------------------------------------------------------------------------|
B|---------------------------------------------------------------------------|
G|-9------5------12------7---------------------------------------------------|
D|-x-(x8)-x-(x8)--x-(x8)-x-(x8)----------------------------------------------|
A|-7------3------10------5---------------------------------------------------|
D|---------------------------------------------------------------------------|

e|---------------------------------------------------------------------------|
B|---------------------------------------------------------------------------|
G|-9/10/9-9------5------12------7--------------------------------------------|
D|-x--x-x-x-(x6)-x-(x8)--x-(x8)-x-(x8)---------------------------------------|
A|-7--8-7-7------3------10------5--------------------------------------------|
D|---------------------------------------------------------------------------|

e|---------------------------------------------------------------------------|
B|---------------------------------------------------------------------------|
G|-10/9~-7-9~---10/9~-7-5~---------------------------------------------------| x3
D|--x-x--x-x-----x----x-x----------------------------------------------------|
A|--8/7~-5-7~----8/7~-5-3~---------------------------------------------------|
D|---------------------------------------------------------------------------|

e|---------------------------------------------------------------------------|
B|---------------------------------------------------------------------------|
G|-10/9~-7-9~-5~-------------------------------------------------------------|
D|--x-x--x-x--x--------------------------------------------------------------|
A|--8-7~-5-7~-3~-------------------------------------------------------------|
D|---------------------------------------------------------------------------|

Pre-Chorus II

e|---------------------------------------------------------------------------|
B|---------------------------------------------------------------------------|
G|-9-12-9~-12-10-9~---5-9-5~-------------------------------------------------|
D|-x--x-x---x--x-x----x-x-x--------------------------------------------------|
A|-7-10-7~-10--8-7~---3-7-3~-------------------------------------------------|
D|---------------------------------------------------------------------------|

e|---------------------------------------------------------------------------|
B|---------------------------------------------------------------------------|
G|-9-12-9~--7-9-5~~~---------------------------------------------------------|
D|-x--x-x---x-x-x~~~---------------------------------------------------------|
A|-7-10-7~--5-7-3~~~---------------------------------------------------------|
D|---------------------------------------------------------------------------|

Chorus II

e|---------------------------------------------------------------------------|
B|---------------------------------------------------------------------------|
G|-9---9---9---9---9~-9~---5---5---5---5---5~-5~-----------------------------|
D|-9---9---9---9---9~-9~---5---5---5---5---5~-5~-----------------------------|
A|-7-7-7-7-7-7-7-7-7~-7~---3-3-3-3-3-3-3-3-3~-3~-----------------------------|
D|---.---.---.---.-----------.---.---.---.-----------------------------------|

e|---------------------------------------------------------------------------|
B|---------------------------------------------------------------------------|
G|-4---4---4---4---4~-4~---5---5---5---5---5~-5~-----------------------------|
D|-4---4---4---4---4~-4~---5---5---5---5---5~-5~-----------------------------|
A|-2-2-2-2-2-2-2-2-2~-2~---3-3-3-3-3-3-3-3-3~-3~-----------------------------|
D|---.---.---.---.-----------.---.---.---.-----------------------------------|

e|---------------------------------------------------------------------------|
B|---------------------------------------------------------------------------|
G|-9---9---9---9---9~-9~---5---5---5---5---5~-5~-----------------------------|
D|-9---9---9---9---9~-9~---5---5---5---5---5~-5~-----------------------------|
A|-7-7-7-7-7-7-7-7-7~-7~---3-3-3-3-3-3-3-3-3~-3~-----------------------------|
D|---.---.---.---.-----------.---.---.---.-----------------------------------|

e|---------------------------------------------------------------------------|
B|---------------------------------------------------------------------------|
G|-4---4---4---4---4~-4~---5~---5~---5~--------------------------------------|
D|-4---4---4---4---4~-4~---5~---5~---5~--------------------------------------|
A|-2-2-2-2-2-2-2-2-2~-2~---3~---3~---3~--------------------------------------|
D|---.---.---.---.------------.----.-----------------------------------------|

Bridge

e|---------------------------------------------------------------------------|
B|-6---6---6---6---6---6---6---6-----5---5---5---5---5---5---5---5-----------|
G|---5---5---5---5---5---5---5---5-----5---5---5---5---5---5---5---5---------|
D|-.-.-.-.-.-.-.-.-.-.-.-.-.-.-.-.---.-.-.-.-.-.-.-.-.-.-.-.-.-.-.-.---------|
A|---------------------------------------------------------------------------|
D|---------------------------------------------------------------------------|

e|-3---3---3---3---3---3---3---3---------------------------------------------|
B|-----------------------------------3---3---3---3---3---3---3---3-----------|
G|---5---5---5---5---5---5---5---5-----5---5---5---5---5---5---5---5---------|
D|-.-.-.-.-.-.-.-.-.-.-.-.-.-.-.-.---.-.-.-.-.-.-.-.-.-.-.-.-.-.-.-.---------|
A|---------------------------------------------------------------------------|
D|---------------------------------------------------------------------------|

e|---------------------------------------------------------------------------|
B|-6---6---6---6---6---6---6---6-----5---5---5---5---5---5---5---5-----------|
G|---5---5---5---5---5---5---5---5-----5---5---5---5---5---5---5---5---------|
D|-.-.-.-.-.-.-.-.-.-.-.-.-.-.-.-.---.-.-.-.-.-.-.-.-.-.-.-.-.-.-.-.---------|
A|---------------------------------------------------------------------------|
D|---------------------------------------------------------------------------|

e|-3---3---3---3---3---3---3---3---------------------------------------------|
B|-----------------------------------3---3---3---3---3---3---3h5p3-----------|
G|---5---5---5---5---5---5---5---5-----5---5---5---5---5---5------5----------|
D|-.-.-.-.-.-.-.-.-.-.-.-.-.-.-.-.---.-.-.-.-.-.-.-.-.-.-.-.-----------------|
A|---------------------------------------------------------------------------|
D|---------------------------------------------------------------------------|

e|---------------------------------------------------------------------------|
B|---6---6---6---6-----5---5---5---5-----8---8---8---8-----3---3---3---3h5p3-|
G|-5-5-5-5-5-5-5-5---5-5-5-5-5-5-5-5---5-5-5-5-5-5-5-5---5-5-5-5-5-5-5------5|
D|-.---.---.---.-----.---.---.---.-----.---.---.---.-----.---.---.---.-------|
A|---------------------------------------------------------------------------|
D|---------------------------------------------------------------------------|

e|---------------------------------------------------------------------------|
B|---6---6---6---6-----5---5---5---5-----8-8-8-8-8-8-8-8-8-8-8-8-8-----------|
G|-5-5-5-5-5-5-5-5---5-5-5-5-5-5-5-5-----5-5-5-5-5-5-5-5-5-5-5-5-5-----------|
D|-.---.---.---.-----.---.---.---.-------------------------------------------|
A|---------------------------------------------------------------------------|
D|---------------------------------------------------------------------------|

Outro

e|---------------------------------------------------------------------------|
B|---------------------------------------------------------------------------|
G|-5-------7-------9-------7--------9--------12-------7----------------------|
D|-x-(x8)--x-(x4)--x-(x4)--x-(x16)--x-(x16)---x-(x4)--x-(x16)----------------|
A|-3-------5-------7-------5--------7--------10-------5----------------------|
D|---------------------------------------------------------------------------|

e|---------------------------------------------------------------------------|
B|---------------------------------------------------------------------------|
G|-4h5-----------------------------------------------------------------------| x3
D|----5-----------------3----------------------------------------------------|
A|-----7-5-7~---5h7p5-3---7-5-3----------------------------------------------|
D|---------------------------------------------------------------------------|

e|---------------------------------------------------------------------------|
B|---------------------------------------------------------------------------|
G|-4h5-----------------------------------------------------------------------|
D|----5----------------------------------------------------------------------|
A|-----7-5-7~---5h7p5-3---8-7-5-3--------------------------------------------|
D|---------------------------------------------------------------------------|

e|---------------------------------------------------------------------------|
B|---------------------------------------------------------------------------|
G|---------------------------------------------------------------------------|
D|---------------------------------------------------------------------------|
A|-3~/10~--7~--5~--3~~~------------------------------------------------------|
D|---------------------------------------------------------------------------|            
Submit corrections


        What Did You Expect  lessons Hard to play? Try these video lessons and learn fast What Did You Expect  lessons
        
↑ Back to top | Tablatures and chords for acoustic guitar and electric guitar, ukulele, drums are parodies/interpretations of the original songs. You may use it for private study, scholarship, research or language learning purposes only