» » »

Neck Deep - Threat Level Midnight Tabs

Artists:  A B C D E F G H I J K L M N O P Q R S T U V W X Y Z # 

Threat Level Midnight Tabs

(ver. 1) Click to play this song!
Neck Deep
 Rating:
4.3/5 (6 votes)

 Threat Level Midnight lessons Tabs too difficult? Try these video lessons and learn fast
 
                [Intro] Guitar 1:
D|-------------------------------------------------------|---------------------------------------------------|
A|-------------------------------------------------------|---------------------------------------------------|
F|--14--14--14--9--9--9--11-11-11-9--9--9--12--12--11-11-|-14--14--14--9--9--9--11-11-11-9--9--9--6--6--7--7-|
C|---x---x---x--x--x--x--x--x--x--x--x--x---x---x--x--x--|--x---x---x--x--x--x--x--x--x--x--x--x--x--x--x--x-|
G|--12--12--12--7--7--7--9--9--9--7--7--7--10--10--9--9--|-12--12--12--7--7--7--9--9--9--7--7--7--4--4--5--5-|
C|-------------------------------------------------------|---------------------------------------------------|

D|-------------------------------------------------------|----------------------------------------|
A|-------------------------------------------------------|----------------------------------------|
F|--14--14--14--9--9--9--11-11-11-9--9--9--12--12--11-11-|--14--14-14-14--14--14--14----12-11--7--|
C|---x---x---x--x--x--x--x--x--x--x--x--x---x---x--x--x--|---x---x--x--x---x---x---x-----x--x--x--|
G|--12--12--12--7--7--7--9--9--9--7--7--7--10--10--9--9--|--12--12-12-12--12--12--12----10--9--5--|
C|-------------------------------------------------------|----------------------------------------|

[Intro] Guitar 2:
D|--------------------------------------------------|--------------------------------------------------|
A|--------------------------------------------------|--------------------------------------------------|
F|--7--7--7-----------7--7--7-----------7--7--------|--4--4--4-----------4--4--4-----------4--4--------|
C|--7--7--7--5--5--5--7--7--7--5--5--5--7--7--5--5--|--4--4--4--5--5--5--4--4--4--5--5--5--4--4--5--5--|
G|--5--5--5--5--5--5--5--5--5--5--5--5--5--5--5--5--|--2--2--2--5--5--5--2--2--2--5--5--5--2--2--5--5--|
C|-----------5--5--5-----------5--5--5--------5--5--|-----------5--5--5-----------5--5--5--------5--5--|

D|--------------------------------------------------|------------------------------|
A|--------------------------------------------------|------------------------------|
F|--7--7--7-----------7--7--7-----------7--7--------|--4--x-x-x--4--4--4--------7--|
C|--7--7--7--5--5--5--7--7--7--5--5--5--7--7--5--5--|--4--x-x-x--4--4--4--5--7--7--|
G|--5--5--5--5--5--5--5--5--5--5--5--5--5--5--5--5--|--2--x-x-x--2--2--2--5--7--5--|
C|-----------5--5--5-----------5--5--5--------5--5--|---------------------5--7-----|

[PreVerse] Guitar 1:
D|----------------------------|
A|----------------------------|
F|----11-11-11-------7--7--7--|
C|----x--x--x--------x--x--x--|
G|----9--9--9--------5--5--5--|
C|----------------------------|

[PreVerse] Guitar 2:
D|-----|
A|-----|
F|--7--|
C|--7--|
G|--5--|
C|-----|(Repeat rapidly until verse)

[Verse] Guitar 1: (x2)
"I've had a steady stream..."
D|--5--------5--------5--------5-------|--2--------2--------0--------0--------|
A|-----3--------3--------3--------3----|-----3--------3--------3--------3-----|
F|--------2--------2--------2-------2--|--------2--------2--------2--------2--|
C|-------------------------------------|--------------------------------------|
G|-------------------------------------|--------------------------------------|
C|-------------------------------------|--------------------------------------|

[Verse 1] Guitar 2:
"I've had a steady stream..."
D|---------------------------------|---------------------------------|
A|---------------------------------|---------------------------------|
F|-7-7-7-7-7-7-7-7-7-7-7-7-7-7-7-7-|-7-7-7-7-7-7-7-7-7-7-7-7-7-7-7-7-|
C|-7-7-7-7-7-7-7-7-7-7-7-7-7-7-7-7-|-7-7-7-7-7-7-7-7-7-7-7-7-7-7-7-7-|
G|-5-5-5-5-5-5-5-5-5-5-5-5-5-5-5-5-|-5-5-5-5-5-5-5-5-5-5-5-5-5-5-5-5-|
C|---------------------------------|---------------------------------|

D|---------------------------------|---------------------------------|
A|---------------------------------|---------------------------------|
F|-4-4-4-4-4-4-4-4-4-4-4-4-4-4-4-4-|---------------------------------|
C|-4-4-4-4-4-4-4-4-4-4-4-4-4-4-4-4-|-5-5-5-5-5-5-5-5-5-5-5-5-5-5-5-5-|
G|-2-2-2-2-2-2-2-2-2-2-2-2-2-2-2-2-|-5-5-5-5-5-5-5-5-5-5-5-5-5-5-5-5-|
C|---------------------------------|-5-5-5-5-5-5-5-5-5-5-5-5-5-5-5-5-|

D|----------------------------|---------------------------------|
A|----------------------------|---------------------------------|
F|-7--7--7-7--7-7-7-7-7-7-7-7-|-7-7-7-7-7-7-7-7-7-7-7-7-7-7-7-7-|
C|-7--7--7-7--7-7-7-7-7-7-7-7-|-7-7-7-7-7-7-7-7-7-7-7-7-7-7-7-7-|
G|-5--5--5-5--5-5-5-5-5-5-5-5-|-5-5-5-5-5-5-5-5-5-5-5-5-5-5-5-5-|
C|----------------------------|---------------------------------|

D|---------------------------------|----------|
A|---------------------------------|----------|
F|-4-4-4-4-4-4-4-4-4-4-4-4-4-4-4-4-|----9--7--|
C|-4-4-4-4-4-4-4-4-4-4-4-4-4-4-4-4-|-5--9--7--|
G|-2-2-2-2-2-2-2-2-2-2-2-2-2-2-2-2-|-5--7--5--|
C|---------------------------------|-5--------|

[Verse 1] Guitar 3:
"Just need to break from the walls..."
D|---------------|------------|
A|---------------|------------|
F|--11-11-11-11--|--12--11-7--|
C|--x--x--x--x---|---x--x--x--|
G|--9--9--9--9---|--10--9--5--|
C|---------------|------------|
                  ^"Just to see if I can focus..."

[PreChorus] Guitar 1: 
"Something more than my loneliness..."
D|-5--------5--------5----|-5--------5--------5----|-0--------0--------0----|-0--------0--------0----|
A|----3--------3--------3-|----3--------3--------3-|----3--------3--------3-|----3--------3--------3-|
F|-------2--------2-------|-------2--------2-------|-------2--------2-------|-------2--------2-------|
C|------------------------|------------------------|------------------------|------------------------|
G|------------------------|------------------------|------------------------|------------------------|
C|------------------------|------------------------|------------------------|------------------------|(x3)

D|-5--------5--------5----|-5--------5--------5----|-2--------2--------2----|-0--------0--------0----|
A|----3--------3--------3-|----3--------3--------3-|----3--------3--------3-|----3--------3--------3-|
F|-------2--------2-------|-------2--------2-------|-------2--------2-------|-------2--------2-------|
C|------------------------|------------------------|------------------------|------------------------|
G|------------------------|------------------------|------------------------|------------------------|
C|------------------------|------------------------|------------------------|------------------------|

[PreChorus] Guitar 2:
"Something more than my loneliness..."
D|------------------------------|------------------------------|
A|------------------------------|------------------------------|
F|--7-7--7--7--7--7-7--7--7--7--|--7-7--7--7--7--7-7--7--7--7--|
C|--7-7--7--7--7--7-7--7--7--7--|--7-7--7--7--7--7-7--7--7--7--|
G|--5-5--5--5--5--5-5--5--5--5--|--5-5--5--5--5--5-5--5--5--5--|
C|------------------------------|------------------------------|(x2)

D|------------------------------|------------------------------|
A|------------------------------|------------------------------|
F|------------------------------|------------------------------|
C|--5-5--5--5--5--5-5--5--5--5--|--5-5--5--5--5--5-5--5--5--5--|
G|--5-5--5--5--5--5-5--5--5--5--|--5-5--5--5--5--5-5--5--5--5--|
C|--5-5--5--5--5--5-5--5--5--5--|--5-5--5--5--5--5-5--5--5--5--|(x2)

D|------------------------------|------------------------------|
A|------------------------------|------------------------------|
F|--7-7--7--7--7--7-7--7--7--7--|--7-7--7--7--7--7-7--7--7--7--|
C|--7-7--7--7--7--7-7--7--7--7--|--7-7--7--7--7--7-7--7--7--7--|
G|--5-5--5--5--5--5-5--5--5--5--|--5-5--5--5--5--5-5--5--5--5--|
C|------------------------------|------------------------------|(x2)

D|--------|-----|
A|--------|-----|
F|--4--4--|--2--|
C|--4--4--|--2--|
G|--2--2--|--0--|
C|--------|-----|

[PreChorus] Guitar 3:
"Something more than my loneliness..."
D|--------------------------------------------------------------|
A|--------------------------------------------------------------|
F|--6/7--7--7--7---6/7--7--7--7---7/9--9--9--9---9-11-11-11-11--|
C|--x-x--x--x--x---x-x--x--x--x---x-x--x--x--x---x-x--x--x--x---|
G|--4/5--5--5--5---4/5--5--5--5---5/7--7--7--7---7/9--9--9--9---|
C|--------------------------------------------------------------|

D|--------------------------------------------------------------|
A|--------------------------------------------------------------|
F|--6/7--7--7--7---6/7--7--7--7--11\9--9--9--9---9--9--9--9--9--|
C|--x-x--x--x--x---x-x--x--x--x---x-x--x--x--x---x--x--x--x--x--|
G|--4/5--5--5--5---4/5--5--5--5---9\7--7--7--7---7--7--7--7--7--|
C|--------------------------------------------------------------|

D|--------------------------------------------------------------|
A|--------------------------------------------------------------|
F|--6/7--7--7--7---6/7--7--7--7---7/9--9--9--9---9-11-11-11-11--|
C|--x-x--x--x--x---x-x--x--x--x---x-x--x--x--x---x-x--x--x--x---|
G|--4/5--5--5--5---4/5--5--5--5---5/7--7--7--7---7/9--9--9--9---|
C|--------------------------------------------------------------|

D|--------|---------|
A|--------|---------|
F|--4--4--|-----12--|
C|--4--4--|------x--|
G|--2--2--|-----10--|
C|--------|---------|

[Chorus] Guitar 1:
"I'm Getting Sick Of Being Broke..."
D|----------------------------|----------------------------|----------------------------|-----|
A|-------10-----10-----10-----|-------10-----5---5---------|-------10-----10-----10-----|-----|
F|--6/7------7------7------7--|--6/7------7----7---7--6/7--|--6/7------7------7------7--|--6--|
C|----------------------------|----------------------------|----------------------------|-----|
G|----------------------------|----------------------------|----------------------------|-----|
C|----------------------------|----------------------------|----------------------------|-----|

D|--9---------9---------9------|--10---------10---------10------|--12---------12---------12------|
A|-----10--------10--------10--|------10---------10---------10--|------10---------10---------10--|
F|---------9---------9---------|----------9----------9----------|----------9----------9----------|
C|-----------------------------|--------------------------------|--------------------------------|
G|-----------------------------|--------------------------------|--------------------------------|
C|-----------------------------|--------------------------------|--------------------------------|

D|--9---------9---------9------|
A|-----10--------10--------10--|
F|---------9---------9---------|
C|-----------------------------|
G|-----------------------------|
C|-----------------------------|

D|--9---------9---------9------|--10---------10---------10------|---9--|
A|-----10--------10--------10--|------10---------10---------10--|--10--|
F|---------9---------9---------|----------9----------9----------|------|
C|-----------------------------|--------------------------------|------|
G|-----------------------------|--------------------------------|------|
C|-----------------------------|--------------------------------|------|

[Chorus]
"I'm Getting Sick Of Being Broke..."
D|--------------------------------------------|--------------------------------------------|
A|--------------------------------------------|--------------------------------------------|
F|--------------------------------------------|--7--7--7--7--7--7--7-----------------------|
C|--4--4--4--4--4--4--4--5--5--5--5--5--5--5--|--7--7--7--7--7--7--7--7--7--7--7--7--7--7--|
G|--4--4--4--4--4--4--4--5--5--5--5--5--5--5--|--5--5--5--5--5--5--5--7--7--7--7--7--7--7--|
C|--4--4--4--4--4--4--4--5--5--5--5--5--5--5--|-----------------------7--7--7--7--7--7--7--|

D|--------------------------------------------|--------------------------------------------|
A|--------------------------------------------|--------------------------------------------|
F|--------------------------------------------|--------------------------------------------|
C|--4--4--4--4--4--4--4--5--5--5--5--5--5--5--|--7--7--7--7--7--7--7--7--7--7--7--7--7--7--|
G|--4--4--4--4--4--4--4--5--5--5--5--5--5--5--|--7--7--7--7--7--7--7--7--7--7--7--7--7--7--|
C|--4--4--4--4--4--4--4--5--5--5--5--5--5--5--|--7--7--7--7--7--7--7--7--7--7--7--7--7--7--|

D|--------------------------------------------|--------------------------------------------|
A|--------------------------------------------|--------------------------------------------|
F|--------------------------------------------|--7--7--7--7--7--7--7-----------------------|
C|--4--4--4--4--4--4--4--5--5--5--5--5--5--5--|--7--7--7--7--7--7--7--7--7--7--7--7--7--7--|
G|--4--4--4--4--4--4--4--5--5--5--5--5--5--5--|--5--5--5--5--5--5--5--7--7--7--7--7--7--7--|
C|--4--4--4--4--4--4--4--5--5--5--5--5--5--5--|-----------------------7--7--7--7--7--7--7--|

D|--------------------------------------------|-----|
A|--------------------------------------------|-----|
F|--------------------------------------------|-----|
C|--4--4--4--4--4--4--4--5--5--5--5--5--5--5--|--7--|
G|--4--4--4--4--4--4--4--5--5--5--5--5--5--5--|--7--|
C|--4--4--4--4--4--4--4--5--5--5--5--5--5--5--|--7--|

[PreVerse 2] Guitar 1:
D|---------------------|----------------------|
A|---------------------|----------------------|
F|--9/11---9/11---9/11-|--9/11---9/11--12\11--|
C|--x-x----x------x-x--|--x-x----x-x----x-x---|
G|--7/9----7/9----7/9--|--7/9----7/9---10\9---|
C|---------------------|----------------------|(x2)

[PreVerse 2] Guitar 2:
D|------------------------------|------------------------------|
A|------------------------------|------------------------------|
F|--7--7--7----7--7--7----7--7--|------------------------------|
C|--7--7--7----7--7--7----7--7--|--5--5--5----5--5--5----5--5--|
G|--5--5--5----5--5--5----5--5--|--5--5--5----5--5--5----5--5--|
C|------------------------------|--5--5--5----5--5--5----5--5--|(x2)

[PreVerse 2] Guitar 3:
D|-----|
A|-----|
F|--7--|
C|--x--|
G|--5--|
C|-----|(Play rapidly)

[PreVerse 2] Guitar 4:
D|--------------------------------------------------|
A|--------------------------------------------------|
F|-11-11-11-11-11-11-11-11-11-11-11-11-11-11-11-11--|
C|--x--x--x--x--x--x--x--x--x--x--x--x--x--x--x--x--|
G|--9--9--9--9--9--9--9--9--9--9--9--9--9--9--9--9--|
C|--------------------------------------------------|

D|-------------------------------------------------|
A|-------------------------------------------------|
F|-11-11-11-11-11-11-11-11-11-11-11-11-12\11-11-11-|
C|--x--x--x--x--x--x--x--x--x--x--x--x--x-x--x--x--|
G|--9--9--9--9--9--9--9--9--9--9--9--9-10\9--9--9--|
C|-------------------------------------------------|
----------------------------

[Verse 2] Guitar 1:
D|---------------------|----------------------|
A|---------------------|----------------------|
F|--9/11---9/11---9/11-|--9/11---9/11--12\11--|
C|--x-x----x------x-x--|--x-x----x-x----x-x---|
G|--7/9----7/9----7/9--|--7/9----7/9---10\9---|
C|---------------------|----------------------|(x2)

[Verse 2] Guitar 2:
D|------------------------------|------------------------------|
A|------------------------------|------------------------------|
F|--7--7--7----7--7--7----7--7--|------------------------------|
C|--7--7--7----7--7--7----7--7--|--5--5--5----5--5--5----5--5--|
G|--5--5--5----5--5--5----5--5--|--5--5--5----5--5--5----5--5--|
C|------------------------------|--5--5--5----5--5--5----5--5--|(x2)

[Verse 2] Guitar 3:
D|-----|
A|-----|
F|--7--|
C|--x--|
G|--5--|
C|-----|(Play rapidly)

[Verse 2] Guitar 4:
D|--------------------------------------------------|
A|--------------------------------------------------|
F|-11-11-11-11-11-11-11-11-11-11-11-11-11-11-11-11--|
C|--x--x--x--x--x--x--x--x--x--x--x--x--x--x--x--x--|
G|--9--9--9--9--9--9--9--9--9--9--9--9--9--9--9--9--|
C|--------------------------------------------------|

D|-------------------------------------------------|
A|-------------------------------------------------|
F|-12-12-12-12-12-12-12-12-12-12-12-12-12-12-12-12-|
C|--x--x--x--x--x--x--x--x--x--x--x--x--x--x--x--x-|
G|-10-10-10-10-10-10-10-10-10-10-10-10-10-10-10-10-|
C|-------------------------------------------------|

D|--------------------------------------------------|
A|--------------------------------------------------|
F|-11-11-11-11-11-11-11-11-11-11-11-11-11-11-11-11--|
C|--x--x--x--x--x--x--x--x--x--x--x--x--x--x--x--x--|
G|--9--9--9--9--9--9--9--9--9--9--9--9--9--9--9--9--|
C|--------------------------------------------------|

D|--------------------------------------------------|
A|--------------------------------------------------|
F|--9--9--9--9--9--9--9--9--9--9--9--9--9--9--9--9--|
C|--x--x--x--x--x--x--x--x--x--x--x--x--x--x--x--x--|
G|--7--7--7--7--7--7--7--7--7--7--7--7--7--7--7--7--|
C|--------------------------------------------------|

[Bridge] Guitar 1:
"Dumb, Passed Out, But On My Feet..."
D|------------------------5-------------------------|------------------------5------------------------|
A|--------3-----3h5p3-----------5-----3----3h5p3----|--------3-----3h5p3-----------5-----3----5----3--|
F|--4--4-----4---------4-----4-----4-----4-------4--|--2--2-----2---------2-----2-----2-----2---2-----|
C|--------------------------------------------------|-------------------------------------------------|
G|--------------------------------------------------|-------------------------------------------------|
C|--------------------------------------------------|-------------------------------------------------|

D|------------------------5-------------------------|------------------------5------------------------|
A|--------3-----3h5p3-----------5-----3----3h5p3----|--------3-----3h5p3-----------5-----3--2h3p3-----|
F|--0--0-----0---------0-----0-----0-----0-------0--|--0--0-----0---------0-----0-----0------------2--|
C|--------------------------------------------------|-------------------------------------------------|
G|--------------------------------------------------|-------------------------------------------------|
C|--------------------------------------------------|-------------------------------------------------|

[Bridge] Guitar 2:
"Dumb, Passed Out, But On My Feet..."
D|-----------------------------------|-----------------------------------|
A|-----------------------------------|-----------------------------------|
F|-----------------------------------|-----------------------------------|
C|--9-9-9-9-9-9-9-9-9-9-9-9-9-9-9-9--|--7-7-7-7-7-7-7-7-7-7-7-7-7-7-7-7--|
G|--9-9-9-9-9-9-9-9-9-9-9-9-9-9-9-9--|--7-7-7-7-7-7-7-7-7-7-7-7-7-7-7-7--|
C|--9-9-9-9-9-9-9-9-9-9-9-9-9-9-9-9--|--7-7-7-7-7-7-7-7-7-7-7-7-7-7-7-7--|

D|-----------------------------------|-----------------------------------|
A|-----------------------------------|-----------------------------------|
F|-----------------------------------|-----------------------------------|
C|--5-5-5-5-5-5-5-5-5-5-5-5-5-5-5-5--|--5-5-5-5-5-5-5-5-5-5-5-5-5-5-5-5--|
G|--5-5-5-5-5-5-5-5-5-5-5-5-5-5-5-5--|--5-5-5-5-5-5-5-5-5-5-5-5-5-5-5-5--|
C|--5-5-5-5-5-5-5-5-5-5-5-5-5-5-5-5--|--5-5-5-5-5-5-5-5-5-5-5-5-5-5-5-5--|

[PreChorus] Guitar 1
"To Seal Our Place In Space And Time..."
D|--10--10--9--9----------|--10--10--9--9----------|--12--12--9--9--|
A|----------------10--10--|----------------10--10--|----------------|
F|------------------------|------------------------|----------------|
C|------------------------|------------------------|----------------|
G|------------------------|------------------------|----------------|
C|------------------------|------------------------|----------------|(x2)

D|--10--|----10--9------|
A|--10--|-----------10--|
F|------|---------------|
C|------|---------------|
G|------|---------------|
C|------|---------------|

[PreChorus] Guitar 2:
"To Seal Our Place In Space And Time..."
D|------------------------------|------------------------------|
A|------------------------------|-----------------------------|
F|------------------------------|-----------------------------|
C|--9-9-9--9-9-9--9-9-9--9-9-9--|--7--7--7--7--7--7--7-7-7-7--|
G|--9-9-9--9-9-9--9-9-9--9-9-9--|--7--7--7--7--7--7--7-7-7-7--|
C|--9-9-9--9-9-9--9-9-9--9-9-9--|--7--7--7--7--7--7--7-7-7-7--|

D|-----|--------|
A|-----|--------|
F|-----|--------|
C|--5--|-----7--|
G|--5--|-----7--|
C|--5--|-----7--|

[PreChorus] Guitar 3:
"Before We All Move On In Life..."
D|-----------------------------------------------------------------------------|
A|-----------------------------------------------------------------------------|
F|--7--7--7--7--7--7--7--7--9--9--9--9--9--9--9--9--11-11-11-11-11-11-11-11-9--|
C|--x--x--x--x--x--x--x--x--x--x--x--x--x--x--x--x--x--x--x--x--x--x--x--x--x--|
G|--5--5--5--5--5--5--5--5--7--7--7--7--7--7--7--7--9--9--9--9--9--9--9--9--7--|
C|-----------------------------------------------------------------------------|

[Chorus] Guitar 1: (x2)
"I'm Getting Sick Of Being Broke..."
D|----------------------------|----------------------------|----------------------------|-----|
A|-------10-----10-----10-----|-------10-----5---5---------|-------10-----10-----10-----|-----|
F|--6/7------7------7------7--|--6/7------7----7---7--6/7--|--6/7------7------7------7--|--6--|
C|----------------------------|----------------------------|----------------------------|-----|
G|----------------------------|----------------------------|----------------------------|-----|
C|----------------------------|----------------------------|----------------------------|-----|

D|--9---------9---------9------|--10---------10---------10------|--12---------12---------12------|
A|-----10--------10--------10--|------10---------10---------10--|------10---------10---------10--|
F|---------9---------9---------|----------9----------9----------|----------9----------9----------|
C|-----------------------------|--------------------------------|--------------------------------|
G|-----------------------------|--------------------------------|--------------------------------|
C|-----------------------------|--------------------------------|--------------------------------|

D|--9---------9---------9------|
A|-----10--------10--------10--|
F|---------9---------9---------|
C|-----------------------------|
G|-----------------------------|
C|-----------------------------|

D|--9---------9---------9------|--10---------10---------10------|---9--|
A|-----10--------10--------10--|------10---------10---------10--|--10--|
F|---------9---------9---------|----------9----------9----------|------|
C|-----------------------------|--------------------------------|------|
G|-----------------------------|--------------------------------|------|
C|-----------------------------|--------------------------------|------|

[Chorus] (x2)
"I'm Getting Sick Of Being Broke..."
D|--------------------------------------------|--------------------------------------------|
A|--------------------------------------------|--------------------------------------------|
F|--------------------------------------------|--7--7--7--7--7--7--7-----------------------|
C|--4--4--4--4--4--4--4--5--5--5--5--5--5--5--|--7--7--7--7--7--7--7--7--7--7--7--7--7--7--|
G|--4--4--4--4--4--4--4--5--5--5--5--5--5--5--|--5--5--5--5--5--5--5--7--7--7--7--7--7--7--|
C|--4--4--4--4--4--4--4--5--5--5--5--5--5--5--|-----------------------7--7--7--7--7--7--7--|

D|--------------------------------------------|--------------------------------------------|
A|--------------------------------------------|--------------------------------------------|
F|--------------------------------------------|--------------------------------------------|
C|--4--4--4--4--4--4--4--5--5--5--5--5--5--5--|--7--7--7--7--7--7--7--7--7--7--7--7--7--7--|
G|--4--4--4--4--4--4--4--5--5--5--5--5--5--5--|--7--7--7--7--7--7--7--7--7--7--7--7--7--7--|
C|--4--4--4--4--4--4--4--5--5--5--5--5--5--5--|--7--7--7--7--7--7--7--7--7--7--7--7--7--7--|

D|--------------------------------------------|--------------------------------------------|
A|--------------------------------------------|--------------------------------------------|
F|--------------------------------------------|--7--7--7--7--7--7--7-----------------------|
C|--4--4--4--4--4--4--4--5--5--5--5--5--5--5--|--7--7--7--7--7--7--7--7--7--7--7--7--7--7--|
G|--4--4--4--4--4--4--4--5--5--5--5--5--5--5--|--5--5--5--5--5--5--5--7--7--7--7--7--7--7--|
C|--4--4--4--4--4--4--4--5--5--5--5--5--5--5--|-----------------------7--7--7--7--7--7--7--|

D|--------------------------------------------|-----|
A|--------------------------------------------|-----|
F|--------------------------------------------|-----|
C|--4--4--4--4--4--4--4--5--5--5--5--5--5--5--|--7--|
G|--4--4--4--4--4--4--4--5--5--5--5--5--5--5--|--7--|
C|--4--4--4--4--4--4--4--5--5--5--5--5--5--5--|--7--|

[Outro] Guitar 1:
D|-------------------------------------------------------|---------------------------------------------------|
A|-------------------------------------------------------|---------------------------------------------------|
F|--14--14--14--9--9--9--11-11-11-9--9--9--12--12--11-11-|-14--14--14--9--9--9--11-11-11-9--9--9--6--6--7--7-|
C|---x---x---x--x--x--x--x--x--x--x--x--x---x---x--x--x--|--x---x---x--x--x--x--x--x--x--x--x--x--x--x--x--x-|
G|--12--12--12--7--7--7--9--9--9--7--7--7--10--10--9--9--|-12--12--12--7--7--7--9--9--9--7--7--7--4--4--5--5-|
C|-------------------------------------------------------|---------------------------------------------------|

D|-------------------------------------------------------|----------------------------------------|
A|-------------------------------------------------------|----------------------------------------|
F|--14--14--14--9--9--9--11-11-11-9--9--9--12--12--11-11-|--14--14-14-14--14--14--14----12-11--7--|
C|---x---x---x--x--x--x--x--x--x--x--x--x---x---x--x--x--|---x---x--x--x---x---x---x-----x--x--x--|
G|--12--12--12--7--7--7--9--9--9--7--7--7--10--10--9--9--|--12--12-12-12--12--12--12----10--9--5--|
C|-------------------------------------------------------|----------------------------------------|

[Outro] Guitar 2:
D|--------------------------------------------------|--------------------------------------------------|
A|--------------------------------------------------|--------------------------------------------------|
F|--7--7--7-----------7--7--7-----------7--7--------|--4--4--4-----------4--4--4-----------4--4--------|
C|--7--7--7--5--5--5--7--7--7--5--5--5--7--7--5--5--|--4--4--4--5--5--5--4--4--4--5--5--5--4--4--5--5--|
G|--5--5--5--5--5--5--5--5--5--5--5--5--5--5--5--5--|--2--2--2--5--5--5--2--2--2--5--5--5--2--2--5--5--|
C|-----------5--5--5-----------5--5--5--------5--5--|-----------5--5--5-----------5--5--5--------5--5--|

D|--------------------------------------------------|------------------------------|
A|--------------------------------------------------|------------------------------|
F|--7--7--7-----------7--7--7-----------7--7--------|--4--x-x-x--4--4--4--------7--|
C|--7--7--7--5--5--5--7--7--7--5--5--5--7--7--5--5--|--4--x-x-x--4--4--4--5--7--7--|
G|--5--5--5--5--5--5--5--5--5--5--5--5--5--5--5--5--|--2--x-x-x--2--2--2--5--7--5--|
C|-----------5--5--5-----------5--5--5--------5--5--|---------------------5--7-----|            
Submit corrections


        Threat Level Midnight lessons Hard to play? Try these video lessons and learn fast Threat Level Midnight lessons
        
↑ Back to top | Tablatures and chords for acoustic guitar and electric guitar, ukulele, drums are parodies/interpretations of the original songs. You may use it for private study, scholarship, research or language learning purposes only