Home » N » Neck Deep »

Neck Deep - The Beach Is For Lovers Not Lonely Losers Tabs

Artists:  A B C D E F G H I J K L M N O P Q R S T U V W X Y Z # 

The Beach Is For Lovers Not Lonely Losers Tabs

(ver. 1) Click to play this song!
Neck Deep
Prelude Rhythm:

e|---------------------------------------------------------|
B|---------------------------------------------------------|
G|---------------------------------------------------------|
D|--2h4p2--------2h4p2-----------------------2h4p2---------|
A|---------4------------4--4--2--2--0--0------------4/2p0--|
D|---------------------------------------------------------|

Prelude Lead:

e|--------------------------------------------------------------------------|
B|--------------------------------------------------------------------------|
G|-----2--------2-----------2--------2--------2--------2--------2--------2--|
D|--------2--2-----------------2--2--------------2--2--------------2--2-----|
A|--0-----------------------------------------------------------------------|
D|-----------------------4-----------------2-----------------0--------------|

Intro Rhythm Chords:

e|-----------------------|
B|-----------------------|
G|--2--------------------|
D|--2-----4-----2-----0--|
A|--0-----4-----2-----0--|
D|--------4-----2-----0--|

Intro Lead Pt.1:

E|--------------------------|-------------------------------|
B|--------------------------|-------------------------------|
G|--9/11\9----6-----4/6/4---|-------------------------------|
D|--x-x-x-----x-----x-x-x---|-------------------------------|
A|--7/9\7-----4-----2/4/2p0-|----0h2h4-----4p2p0--4p2p0-----|
D|--------------------------|-------------------------------|
                     3 Times^
Octaves Intro Pt.2 (Don't Play If You're Not in a 3 Guitar Band):

e|-------------------------------------|
B|-------------------------------------|
G|-----4--6--9-----------4--6--13--14--|
D|-----x--x--x-----------x--x--x----x--|
A|--0--2--4--7--------0--2--4--11--12--|
D|-------------------------------------|

Intro Lead Pt.2:

e|--9------9------|--7------7------|-------------|-------------|
B|-----10-----10--|-----10-----10--|--9-----9----|--10-----10--|
G|----------------|----------------|-----9----9--|------9-----9|
D|----------------|----------------|-------------|-------------|
A|----------------|----------------|-------------|-------------|
D|----------------|----------------|-------------|-------------|
    
Verse Rhythm:
e|-----|--------------|
B|-----|--------------|
G|--2--|--2-----------|
D|--2--|--2--4--2--0--|
A|--0--|--0--4--2--0--|
D|-----|-----4--2--0--|
Sustain^  /  /  /  /


Verse Lead (Played With Angels And Airwaves-Style delay):
e|--9--9--9--12--12--12--12--7--7--7--7--4/5--4/5--|
B|-------------------------------------------------|
G|-------------------------------------------------|
D|-------------------------------------------------|
A|-------------------------------------------------|
D|-------------------------------------------------|

Scale/End-Verse Fill:

e|--------------|-----------------|
B|--------------|-----------------|
G|--------------|-----------------|
D|-----------2--|-----------------|
A|--0--2--4-----|--0--2--4--5--0--|
D|--------------|-----------------|

Chorus Rhythm Chords:

e|--------------|
B|--------------|
G|--2-----------|
D|--2--4--2--0--|
A|--0--4--2--0--|
D|-----4--2--0--|

Chorus Pt.1 Lead (Very Faint):

e|----------------|----------------|------------------------|
B|----------------|------------17--|------------------------|
G|----------------|----------------|------------------------|
D|--14h16p14------|--14h16p14------|--14h16p14--------------|
A|------------16--|----------------|------------16--14--12--|
D|----------------|----------------|------------------------|

Chorus Pt.2 Lead:

e|--9------9------|--7------7------|-------------|-------------|
B|-----10-----10--|-----10-----10--|--9-----9----|--10-----10--|
G|----------------|----------------|-----9----9--|------9-----9|
D|----------------|----------------|-------------|-------------|
A|----------------|----------------|-------------|-------------|
D|----------------|----------------|-------------|-------------|

Bridge Chord (Strum and Palm-mute throughout as you see fit):

e|-----|
B|-----|
G|--2--|
D|--2--|
A|--0--|
D|-----|

Bridge Lead (Played Clean):

e|--------|--------|------------------------|--12------|--14--|--7------|--9--|--------|-----------|
B|--9-----|--9-----|-----9-----------9--10--|------10--|------|-----10--|-----|--9-----|-----9-----|
G|-----9--|-----9--|--9-----9-----9---------|----------|------|---------|-----|-----9--|--9-----9--|
D|--------|--------|------------------------|----------|------|---------|-----|--------|-----------|
A|--------|--------|------------------------|----------|------|---------|-----|--------|-----------|
D|--------|--------|------------------------|----------|------|---------|-----|--------|-----------|

Bridge Lead Continued:

e|------------|
B|-----9--10--|
G|--9---------|
D|------------|
A|------------|
D|------------|            
Submit corrections

↑ Back to top | Tablatures and chords for acoustic guitar and electric guitar, ukulele, drums are parodies/interpretations of the original songs. You may use it for private study, scholarship, research or language learning purposes only