» » »

Neck Deep - Parachute Tabs

Artists:  A B C D E F G H I J K L M N O P Q R S T U V W X Y Z # 

Parachute Tabs

(ver. 1) Click to play this song!
Neck Deep
 Rating:
4.3/5 (16 votes)

 Parachute lessons Tabs too difficult? Try these video lessons and learn fast
 
                Intro/Verse] Guitar 1
"It's Another Day, Wanna Get Away..."
e|-------------------|
B|-------------------|
G|----------4--4--4--|
D|--3/4--4-----------|
A|-------------------|
E|-------------------|(x12)

[Intro/Verse] Guitar 2 (x3)
"It's Another Day, Wanna Get Away..."
e|--------------------------|-----------------------------|
B|--------------------------|-----------------------------|
G|--4--4--4--4--4--4--4--4--|--4--4--4--4--4--4--4--------|
D|--4--4--4--4--4--4--4--4--|--4--4--4--4--4--4--4--4--4--|
A|--2--2--2--2--2--2--2--2--|--2--2--2--2--2--2--2--4--4--|
E|--------------------------|-----------------------2--2--|

e|-----------------------------|-----------------------------|
B|-----------------------------|-----------------------------|
G|-----------------------------|-----------------------------|
D|--2--2--2--2--2--2--2--2--2--|--2--2--2--2--2--2--2--2--2--|
A|--2--2--2--2--2--2--2--2--2--|--2--2--2--2--2--2--2--2--2--|
E|--0--0--0--0--0--0--0--0--0--|--0--0--0--0--0--0--0--0--0--|

[PreChorus] Guitar 1:
"Cause The Rain Is So Terribly Dull.."
e|--------0--|--------0--|--------0--|--------|
B|-----4-----|-----4-----|-----4-----|--------|
G|--4--------|--4--------|--4--------|-----4--|
D|-----------|-----------|-----------|--4-----|
A|-----------|-----------|-----------|--------|
E|-----------|-----------|-----------|--------|

e|--------0--|--------0--|--------0--|--------0--|
B|-----4-----|-----4-----|-----4-----|-----4-----|
G|--4--------|--4--------|--4--------|--4--------|
D|-----------|-----------|-----------|-----------|
A|-----------|-----------|-----------|-----------|
E|-----------|-----------|-----------|-----------|

e|--------0--|--------0--|--------0--|--------|
B|-----4-----|-----4-----|-----4-----|--------|
G|--4--------|--4--------|--4--------|-----4--|
D|-----------|-----------|-----------|--4-----|
A|-----------|-----------|-----------|--------|
E|-----------|-----------|-----------|--------|

e|--------0--|--------0--|--------0--|--3--|
B|-----4-----|-----4-----|-----4-----|--4--|
G|--4--------|--4--------|--4--------|--4--|
D|-----------|-----------|-----------|-----|
A|-----------|-----------|-----------|-----|
E|-----------|-----------|-----------|-----|

[PreChorus] Guitar 2:
"Cause The Rain Is So Terribly Dull.."
e|-----------------|-----------------|-----------------|-----------------|
B|-----------------|-----------------|-----------------|-----------------|
G|--6--6--6--6--6--|--6--6--6--6--4--|-----------------|-----------------|
D|--6--6--6--6--6--|--6--6--6--6--4--|--2--2--2--2--2--|--2--2--2--2--2--|
A|--4--4--4--4--4--|--4--4--4--4--6--|--2--2--2--2--2--|--2--2--2--2--2--|
E|-----------------|-----------------|--0--0--0--0--0--|--0--0--0--0--0--|(x2)


[Chorus] Guitar 1: (x2)
"I Want To Break out And Get Away..."
e|------------------------------------------------------------------|
B|--16--16--16--14--16--16--14--16--16--14--16--16--16--16--16--16--|
G|--16--16--16--16--16--16--16--16--16--16--16--16--16--16--16--16--|
D|------------------------------------------------------------------|
A|------------------------------------------------------------------|
E|------------------------------------------------------------------|(x2)


e|------------------------------------------------------------------|
B|--11--11--11---9--11--11---9--11--11---9--11--11--11--11--11--11--|
G|--11--11--11--11--11--11--11--11--11--11--11--11--11--11--11--11--|
D|------------------------------------------------------------------|
A|------------------------------------------------------------------|
E|------------------------------------------------------------------|


e|---------------------------------------------------------------------|
B|--12--12--x--x--11/12--12--x--x--11/12--12--x--x--11/12--12--12--12--|
G|--11--11--x--x--11-----11--x--x--11-----11--x--x--11-----11--12--12--|
D|---------------------------------------------------------------------|
A|---------------------------------------------------------------------|
E|---------------------------------------------------------------------|

[Chorus] Guitar 2: (x2)
"I Want To Break out And Get Away..."
e|--------------------------|--------------------------|--------------------------|--------------------------|
B|--------------------------|--------------------------|--------------------------|--------------------------|
G|--4--4--4--4--4--4--4--4--|--4--4--4--4--4--4--8--8--|--------------------------|--------------------------|
D|--4--4--4--4--4--4--4--4--|--4--4--4--4--4--4--8--8--|--6--6--6--6--6--6--6--6--|--6--6--6--6--6--6--6--6--|
A|--2--2--2--2--2--2--2--2--|--2--2--2--2--2--2--6--6--|--6--6--6--6--6--6--6--6--|--6--6--6--6--6--6--6--6--|
E|--------------------------|--------------------------|--4--4--4--4--4--4--4--4--|--4--4--4--4--4--4--4--4--|

e|--------------------------|--------------------------|--------------------------|--------------------------|
B|--------------------------|--------------------------|--------------------------|--------------------------|
G|--------------------------|--------------------------|--------------------------|--------------------------|
D|--4--4--4--4--4--4--4--4--|--4--4--4--4--4--4--4--4--|--2--2--x-x-x-2--2--x-x-x-|--2--2--x-x-x-2--2--5--5--|
A|--4--4--4--4--4--4--4--4--|--4--4--4--4--4--4--4--4--|--2--2--x-x-x-2--2--x-x-x-|--2--2--x-x-x-2--2--5--5--|
E|--2--2--2--2--2--2--2--2--|--2--2--2--2--2--2--2--2--|--0--0--x-x-x-0--0--x-x-x-|--0--0--x-x-x-0--0--3--3--|


[Intro/Verse] Guitar 1
"I'm Done With Small Town Politcs..."
e|-------------------|
B|-------------------|
G|----------4--4--4--|
D|--3/4--4-----------|
A|-------------------|
E|-------------------|(x7)

[Intro/Verse] Guitar 2 (x3)
"I'm Done With Small Town Politcs..."
e|--------------------------|-----------------------------|
B|--------------------------|-----------------------------|
G|--4--4--4--4--4--4--4--4--|--4--4--4--4--4--4--4--------|
D|--4--4--4--4--4--4--4--4--|--4--4--4--4--4--4--4--4--4--|
A|--2--2--2--2--2--2--2--2--|--2--2--2--2--2--2--2--4--4--|
E|--------------------------|-----------------------2--2--|

e|-----------------------------|-----------------------------|
B|-----------------------------|-----------------------------|
G|-----------------------------|-----------------------------|
D|--2--2--2--2--2--2--2--2--2--|--2--2--2--2--2--2--2--2--2--|
A|--2--2--2--2--2--2--2--2--2--|--2--2--2--2--2--2--2--2--2--|
E|--0--0--0--0--0--0--0--0--0--|--0--0--0--0--0--0--0--0--0--|

[PreChorus] Guitar 1:
"Cause Baby, If You Like, I'll Take You There..."
e|--------0--|--------0--|--------0--|--------|
B|-----4-----|-----4-----|-----4-----|--------|
G|--4--------|--4--------|--4--------|-----4--|
D|-----------|-----------|-----------|--4-----|
A|-----------|-----------|-----------|--------|
E|-----------|-----------|-----------|--------|

e|--------0--|--------0--|--------0--|--------0--|
B|-----4-----|-----4-----|-----4-----|-----4-----|
G|--4--------|--4--------|--4--------|--4--------|
D|-----------|-----------|-----------|-----------|
A|-----------|-----------|-----------|-----------|
E|-----------|-----------|-----------|-----------|

e|--------0--|--------0--|--------0--|--------|
B|-----4-----|-----4-----|-----4-----|--------|
G|--4--------|--4--------|--4--------|-----4--|
D|-----------|-----------|-----------|--4-----|
A|-----------|-----------|-----------|--------|
E|-----------|-----------|-----------|--------|

e|--------0--|--------0--|--------0--|--3--|
B|-----4-----|-----4-----|-----4-----|--4--|
G|--4--------|--4--------|--4--------|--4--|
D|-----------|-----------|-----------|-----|
A|-----------|-----------|-----------|-----|
E|-----------|-----------|-----------|-----|

[PreChorus] Guitar 2:
"Cause Baby, If You Like, I'll Take You There..."
e|-----------------|-----------------|-----------------|-----------------|
B|-----------------|-----------------|-----------------|-----------------|
G|--6--6--6--6--6--|--6--6--6--6--4--|-----------------|-----------------|
D|--6--6--6--6--6--|--6--6--6--6--4--|--2--2--2--2--2--|--2--2--2--2--2--|
A|--4--4--4--4--4--|--4--4--4--4--6--|--2--2--2--2--2--|--2--2--2--2--2--|
E|-----------------|-----------------|--0--0--0--0--0--|--0--0--0--0--0--|(x2)

[Chorus] Guitar 1: (x2)
"I Want To Break out And Get Away..."
e|------------------------------------------------------------------|
B|--16--16--16--14--16--16--14--16--16--14--16--16--16--16--16--16--|
G|--16--16--16--16--16--16--16--16--16--16--16--16--16--16--16--16--|
D|------------------------------------------------------------------|
A|------------------------------------------------------------------|
E|------------------------------------------------------------------|(x2)


e|------------------------------------------------------------------|
B|--11--11--11---9--11--11---9--11--11---9--11--11--11--11--11--11--|
G|--11--11--11--11--11--11--11--11--11--11--11--11--11--11--11--11--|
D|------------------------------------------------------------------|
A|------------------------------------------------------------------|
E|------------------------------------------------------------------|


e|---------------------------------------------------------------------|
B|--12--12--x--x--11/12--12--x--x--11/12--12--x--x--11/12--12--12--12--|
G|--11--11--x--x--11-----11--x--x--11-----11--x--x--11-----11--12--12--|
D|---------------------------------------------------------------------|
A|---------------------------------------------------------------------|
E|---------------------------------------------------------------------|

[Chorus] Guitar 2: (x2)
"I Want To Break out And Get Away..."
e|--------------------------|--------------------------|--------------------------|--------------------------|
B|--------------------------|--------------------------|--------------------------|--------------------------|
G|--4--4--4--4--4--4--4--4--|--4--4--4--4--4--4--8--8--|--------------------------|--------------------------|
D|--4--4--4--4--4--4--4--4--|--4--4--4--4--4--4--8--8--|--6--6--6--6--6--6--6--6--|--6--6--6--6--6--6--6--6--|
A|--2--2--2--2--2--2--2--2--|--2--2--2--2--2--2--6--6--|--6--6--6--6--6--6--6--6--|--6--6--6--6--6--6--6--6--|
E|--------------------------|--------------------------|--4--4--4--4--4--4--4--4--|--4--4--4--4--4--4--4--4--|

e|--------------------------|--------------------------|--------------------------|--------------------------|
B|--------------------------|--------------------------|--------------------------|--------------------------|
G|--------------------------|--------------------------|--------------------------|--------------------------|
D|--4--4--4--4--4--4--4--4--|--4--4--4--4--4--4--4--4--|--2--2--x-x-x-2--2--x-x-x-|--2--2--x-x-x-2--2--5--5--|
A|--4--4--4--4--4--4--4--4--|--4--4--4--4--4--4--4--4--|--2--2--x-x-x-2--2--x-x-x-|--2--2--x-x-x-2--2--5--5--|
E|--2--2--2--2--2--2--2--2--|--2--2--2--2--2--2--2--2--|--0--0--x-x-x-0--0--x-x-x-|--0--0--x-x-x-0--0--3--3--|


[Bridge] Guitar 2:
"We Don't Need A God To Make A Leap Of Faith..."
e|--------------------------------------------------|--------------------------------------------------|
B|--------------------------------------------------|--------------------------------------------------|
G|--------------------------------------------------|--4--4--4--4--4--4--4--4--4--4--4--4--4--4--4--4--|
D|--6--6--6--6--6--6--6--6--6--6--6--6--6--6--6--6--|--4--4--4--4--4--4--4--4--4--4--4--4--4--4--4--4--|
A|--6--6--6--6--6--6--6--6--6--6--6--6--6--6--6--6--|--2--2--2--2--2--2--2--2--2--2--2--2--2--2--2--2--|
E|--4--4--4--4--4--4--4--4--4--4--4--4--4--4--4--4--|--------------------------------------------------|

e|--------------------------------------------------|--------------------------------------------------|
B|--------------------------------------------------|--------------------------------------------------|
G|--------------------------------------------------|--------------------------------------------------|
D|--4--4--4--4--4--4--4--4--4--4--4--4--4--4--4--4--|--2--2--2--2--2--2--2--2--2--2--2--2--2--2--2--2--|
A|--4--4--4--4--4--4--4--4--4--4--4--4--4--4--4--4--|--2--2--2--2--2--2--2--2--2--2--2--2--2--2--2--2--|
E|--2--2--2--2--2--2--2--2--2--2--2--2--2--2--2--2--|--0--0--0--0--0--0--0--0--0--0--0--0--0--0--0--0--|

[Bridge] Guitar 1:
"We Don't Need A God To Make A Leap Of Faith..."
e|--------------------------------------------------|--------------------------------------------------|
B|--------------------------------------------------|--------------------------------------------------|
G|--8--8--8--8--8--8--8--8--8--8--8--8--8--8--8--8--|--16-16-16-16-16-16-16-16-16-16-16-16-16-16-16-16-|
D|--x--x--x--x--x--x--x--x--x--x--x--x--x--x--x--x--|---x--x--x--x--x--x--x--x--x--x--x--x--x--x--x--x-|
A|--6--6--6--6--6--6--6--6--6--6--6--6--6--6--6--6--|--14-14-14-14-14-14-14-14-14-14-14-14-14-14-14-14-|
E|--------------------------------------------------|--------------------------------------------------|

e|--------------------------------------------------|--------------------------------------------------|
B|--------------------------------------------------|--------------------------------------------------|
G|--11-11-11-11-11-11-11-11-11-11-11-11-11-11-11-11-|--16-16-16-16-16-16-16-16-16-16-16-16-16-16-16-16-|
D|--x--x--x--x--x--x--x--x--x--x--x--x--x--x--x--x--|---x--x--x--x--x--x--x--x--x--x--x--x--x--x--x--x-|
A|--9--9--9--9--9--9--9--9--9--9--9--9--9--9--9--9--|--14-14-14-14-14-14-14-14-14-14-14-14-14-14-14-14-|
E|--------------------------------------------------|--------------------------------------------------|


[Chorus] Guitar 1: (x2)
"I Want To Break out And Get Away..."
e|--------|
B|-----0--|
G|--3-----|
D|--------|
A|--------|
E|--------|(x12)

e|--------0--|--------0--|--------0--|--3--|
B|-----4-----|-----4-----|-----4-----|--4--|
G|--4--------|--4--------|--4--------|--4--|
D|-----------|-----------|-----------|-----|
A|-----------|-----------|-----------|-----|
E|-----------|-----------|-----------|-----|

[Chorus] Guitar 1: (x2)
"I Want To Break out And Get Away..."
e|------------------------------------------------------------------|
B|--16--16--16--14--16--16--14--16--16--14--16--16--16--16--16--16--|
G|--16--16--16--16--16--16--16--16--16--16--16--16--16--16--16--16--|
D|------------------------------------------------------------------|
A|------------------------------------------------------------------|
E|------------------------------------------------------------------|(x2)


e|------------------------------------------------------------------|
B|--11--11--11---9--11--11---9--11--11---9--11--11--11--11--11--11--|
G|--11--11--11--11--11--11--11--11--11--11--11--11--11--11--11--11--|
D|------------------------------------------------------------------|
A|------------------------------------------------------------------|
E|------------------------------------------------------------------|


e|---------------------------------------------------------------------|
B|--12--12--x--x--11/12--12--x--x--11/12--12--x--x--11/12--12--12--12--|
G|--11--11--x--x--11-----11--x--x--11-----11--x--x--11-----11--12--12--|
D|---------------------------------------------------------------------|
A|---------------------------------------------------------------------|
E|---------------------------------------------------------------------|

[Chorus Solo] Guitar 1: (x2)
"I Want To Break out And Get Away..."
e|----------14-------------14-------------14-------------14/16\14--11--|
B|---11/12------12--11/12------12--11/12------12--11/12----------------|
G|---------------------------------------------------------------------|
D|---------------------------------------------------------------------|
A|---------------------------------------------------------------------|
E|---------------------------------------------------------------------|

e|----------14-------------14-------------14-------------14----------------|
B|---11/12------12--11/12------12--11/12------12--11/12--------------------|
G|-----------------------------------------------------------11--8---------|
D|------------------------------------------------------------------11--9--|
A|-------------------------------------------------------------------------|
E|-------------------------------------------------------------------------|


e|------------------------|--------------------------------14---------14---------14---------14/16\14--|
B|------------------------|---------------------12--14h16------14h16------14h16------14h16------------|
G|------------------------|-------------11--13--------------------------------------------------------|
D|--11--9--11--13--11--9--|--11--9--11----------------------------------------------------------------|
A|------------------------|---------------------------------------------------------------------------|
E|------------------------|---------------------------------------------------------------------------|

e|-----------------------------|
B|--16~16~16~16~--16--14--12\--|
G|----------------16--16--11\--|
D|-----------------------------|
A|-----------------------------|
E|-----------------------------|

[Chorus] Guitar 2: (x4)
"I Want To Break out And Get Away..."
e|--------------------------|--------------------------|--------------------------|--------------------------|
B|--------------------------|--------------------------|--------------------------|--------------------------|
G|--4--4--4--4--4--4--4--4--|--4--4--4--4--4--4--8--8--|--------------------------|--------------------------|
D|--4--4--4--4--4--4--4--4--|--4--4--4--4--4--4--8--8--|--6--6--6--6--6--6--6--6--|--6--6--6--6--6--6--6--6--|
A|--2--2--2--2--2--2--2--2--|--2--2--2--2--2--2--6--6--|--6--6--6--6--6--6--6--6--|--6--6--6--6--6--6--6--6--|
E|--------------------------|--------------------------|--4--4--4--4--4--4--4--4--|--4--4--4--4--4--4--4--4--|

e|--------------------------|--------------------------|--------------------------|--------------------------|
B|--------------------------|--------------------------|--------------------------|--------------------------|
G|--------------------------|--------------------------|--------------------------|--------------------------|
D|--4--4--4--4--4--4--4--4--|--4--4--4--4--4--4--4--4--|--2--2--x-x-x-2--2--x-x-x-|--2--2--x-x-x-2--2--5--5--|
A|--4--4--4--4--4--4--4--4--|--4--4--4--4--4--4--4--4--|--2--2--x-x-x-2--2--x-x-x-|--2--2--x-x-x-2--2--5--5--|
E|--2--2--2--2--2--2--2--2--|--2--2--2--2--2--2--2--2--|--0--0--x-x-x-0--0--x-x-x-|--0--0--x-x-x-0--0--3--3--|
            
Submit corrections


        Parachute lessons Hard to play? Try these video lessons and learn fast Parachute lessons
        
↑ Back to top | Tablatures and chords for acoustic guitar and electric guitar, ukulele, drums are parodies/interpretations of the original songs. You may use it for private study, scholarship, research or language learning purposes only