Home » N » Neck Deep »

Neck Deep - Over And Over Bass

Artists:  A B C D E F G H I J K L M N O P Q R S T U V W X Y Z # 

Over And Over Bass

(ver. 1) Click to play this song!
Neck Deep
Tuning: Drop C

Verse
F|--------------------------------------|
C|--------------------------------------|
G|--------------------------------------| x 4
C|-0--0--2--2-2-2-2-2-2-2-2-2-2-2-2-2-2-|

F|--------------------------------------|
C|--------------------------------------|
G|-4--4--5--5-5-5-5-5-5-5-5-5-5-5-5-5-5-| x 2
C|--------------------------------------|

F|----------------------------------------------|
C|----------------------------------------------|
G|----------------------------------------------|
C|-2--2--2--2--2--2--2--2--2--2--2--2--2--------|

Pre-Chorus
F|-------------------------------------------------------------------------------------------------|
C|-------------------------------------------------------------------------------------------------|
G|-------------------------------------------------------------------------------------------------|
C|-4~------------2--2--7~------------2--2--4~------------2--2--7~------------2--2--2--2--2---------|

Chorus
F|-----------------------------------------------------------------|
C|-----------------------------------------------------------------|
G|-----------------------------------------------------------------|
C|-4-4-4-4-4-4-4-4-4-4-4-4-4-4-4-4-7-7-7-7-7-7-7-7-6-6-6-6-6-6-6-6-|

F|-----------------------------------------------------------------|
C|-----------------------------------------------------------------|
G|-----------------------------------------------------------------|
C|-0-0-0-0-0-0-0-0-0-0-0-0-0-0-0-0-0-0-0-0-0-0-0-0-2-2-2-2-2-2-2-2-|

F|-----------------------------------------------------------------|
C|-----------------------------------------------------------------|
G|-----------------------------------------------------------------|
C|-4-4-4-4-4-4-4-4-4-4-4-4-4-4-4-4-7-7-7-7-7-7-7-7-6-6-6-6-6-6-6-6-|

F|-----------------------------------------------------------------|
C|-----------------------------------------------------------------|
G|-----------------------------------------------------------------|
C|-0-0-0-0-0-0-0-0-0-0-0-0-0-0-0-0-0-0-0-0-0-0-0-0-2-2-2-2-2-------|

Bridge I x 2
F|-------------------------------------------------------------------------------------|
C|-------------------------------------------------------------------------------------|
G|-------------------------------------------------------------------------------------|
C|-0~----0x----0~----0x----0~----------------2~----2x----2~----2x----2~----------------|

F|--------------------------------------------------------------------------------------------|
C|--------------------------------------------------------------------------------------------|
G|--------------------------------------------------------------------------------------------|
C|-4~----4x----4~----4x----4~----------------2~----2x----2~----2x----2~-------7-7-7-7-6-6-6-6-|

Chorus

Bridge II x 2
F|-----------------------------------------------------------|
C|-----------------------------------------------------------|
G|-----------------------------------------------------------|
C|-0-0-0-0x----0-0-0-0x----0-0-0-0x----0-0-0-0x----0----0----|

F|-----------------------------------------------------------|
C|-----------------------------------------------------------|
G|-----------------------------------------------------------|
C|-4-4-4-4x----4-4-4-4x----2-2-2-2x----2-2-2-2x----7----6----|

-BREAK-

Outro
F|-----------------------------------------------------------------|
C|-----------------------------------------------------------------|
G|-----------------------------------------------------------------|
C|-0-0-0-0-0-0-0-0-0-0-0-0-0-0-0-0-2-2-2-2-2-2-2-2-2-2-2-2-2-2-2-2-|

F|-----------------------------------------------------------------|
C|-----------------------------------------------------------------|
G|---------------------------------4-4-4-4-4-4-4-4-4-4-4-4-4-4-4-4-|
C|-4-4-4-4-4-4-4-4-4-4-4-4-4-4-4-4---------------------------------|

F|-----------------------------------------------------------------|
C|-----------------------------------------------------------------|
G|-----------------------------------------------------------------|
C|-0-0-0-0-0-0-0-0-0-0-0-0-0-0-0-0-2-2-2-2-2-2-2-2-2-2-2-2-2-2-2-2-|

F|------------------------------------------------------------------------|
C|------------------------------------------------------------------------|
G|------------------------------------------------------------------------|
C|-4-4-4-4-4-4-4-4-4-4-4-4-4-4-4-4-4-4-4-4-4-4-4-4-4x----4x----4x---------|            
Submit corrections

↑ Back to top | Tablatures and chords for acoustic guitar and electric guitar, ukulele, drums are parodies/interpretations of the original songs. You may use it for private study, scholarship, research or language learning purposes only