Home » N » Neck Deep »

Neck Deep - Lowlife Bass

Artists:  A B C D E F G H I J K L M N O P Q R S T U V W X Y Z # 

Lowlife Bass

(ver. 1) Click to play this song!
Neck Deep
 Rating:
4.3/5 (18 votes)
                [Verse 1]
 
G|---------------------------------------------------------------------------|
D|---------------------------------------------------------------------------|
A|---------------------------------------------------------------------------|
D|-3---3/7---7-0---0-8-8----3---3/7---7-0---0-8-8----3---3/7---7-0---0-8-8---|
 
G|---------------------------------------------------------------------------|
D|---------------------------------------------------------------------------|
A|---------------------------------------------------------------------------|
D|-3---3/7---7-0---0-8-8----3---3/7---7-0---0-8-8----3---3/7---7-0---0-8-8---|
 
 
[Pre-Chorus]
 
G|---------------------------------------------------------------------------|
D|---------------------------------------------------------------------------|
A|-----------------1-1-1-1-1-1-1-1-------------------------------------------|
D|-5-5-5-5-5-5-5-5-----------------------------------------------------------|
 
 
[Verse 2]
 
G|---------------------------------------------------------------------------|
D|---------------------------------------------------------------------------|
A|---------------------------------------------------------------------------|
D|-3---3/7---7-0---0-8-8----3---3/7---7-0---0-8-8----3---3/7---7-0---0-8-8---|
 
G|---------------------------------------------------------------------------|
D|---------------------------------------------------------------------------|
A|---------------------------------------------------------------------------|
D|-3---3/7---7-0---0-8-8----3---3/7---7-0---0-8-8----3---3/7---7-0---0-8-8---|
 
 
[Pre-Chorus]
 
G|---------------------------------------------------------------------------|
D|---------------------------------------------------------------------------|
A|-----------------1-1-1-1-1-1-1-1-------------------------------------------|
D|-5-5-5-5-5-5-5-5-----------------------------------------------------------|
 
 
[Chorus]
 
G|---------------------------------------------------------------------------|
D|---------------------------------------------------------------------------|
A|---------------------------------------------------------------------------|
D|-3-3-3-3-3-3-3-3-7---7-7-7-7-7-7-7-0-0-0-0-0-0-0-8---8-8-8-8-8-8-8---------|
 
G|---------------------------------------------------------------------------|
D|---------------------------------------------------------------------------|
A|---------------------------------------------------------------------------|
D|-3-3-3-3-3-3-3-3-7---7-7-7-7-7-7-7-----------------------------------------|
 
 
[Verse 3]
 
G|---------------------------------------------------------------------------|
D|---------------------------------------------------------------------------|
A|---------------------------------------------------------------------------|
D|-3---3/7---7-0---0-8-8----3---3/7---7-0---0-8-8----3---3/7---7-0---0-8-8---|
 
G|---------------------------------------------------------------------------|
D|---------------------------------------------------------------------------|
A|---------------------------------------------------------------------------|
D|-3---3/7---7-0---0-8-8----3---3/7---7-0---0-8-8----3---3/7---7-0---0-8-8---|
 
G|---------------------------------------------------------------------------|
D|---------------------------------------------------------------------------|
A|---------------------------------------------------------------------------|
D|-3---3/7---7-0---0-8-8----3---3/7---7-0---0-8-8----------------------------|
 
 
[Pre-Chorus]
 
G|---------------------------------------------------------------------------|
D|---------------------------------------------------------------------------|
A|-----------------1-1-1-1-1-1-1-1-------------------------------------------|
D|-5-5-5-5-5-5-5-5-----------------------------------------------------------|
 
 
[Chorus]
 
G|---------------------------------------------------------------------------|
D|---------------------------------------------------------------------------|
A|---------------------------------------------------------------------------|
D|-3-3-3-3-3-3-3-3-7---7-7-7-7-7-7-7-0-0-0-0-0-0-0-8---8-8-8-8-8-8-8---------|
 
G|---------------------------------------------------------------------------|
D|---------------------------------------------------------------------------|
A|---------------------------------------------------------------------------|
D|-3-3-3-3-3-3-3-3-7---7-7-7-7-7-7-7-----------------------------------------|
 
 
[Bridge]
 
G|---------------------------------------------------------------------------|
D|---------------------------------------------------------------------------|
A|---------------------------------------------------------------------------|
D|-0-0-15-15-0-0-15-15-0-0-15-3-3-3-3-3-3-3-7---7-7-7-7-7-7-7----------------|
 
G|---------------------------------------------------------------------------|
D|---------------------------------------------------------------------------|
A|---------------------------------------------------------------------------|
D|-0-0-15-15-0-0-15-15-0-0-15-3-3-3-3-3-3-3-7---7-7-7-7-7-7-7----------------|
 
G|---------------------------------------------------------------------------|
D|---------------------------------------------------------------------------|
A|---------------------------------------------------------------------------|
D|-0-0-0-0-0-0-0-8---8-8-8-8-8-8-8-3-3-3-3-3-3-3-3-7---7-7-7-7-7-7-7---------|
 
G|---------------------------------------------------------------------------|
D|---------------------------------------------------------------------------|
A|---------------------------------------------------------------------------|
D|-0-0-0-0-0-0-0-8---8-8-8-8-8-8-8-3-3-3-3-3-3-3-3-7---7-7-7-7-7-7-7---------|
 
 
[Outro]
 
G|---------------------------------------------------------------------------|
D|---------------------------------------------------------------------------|
A|---------------------------------------------------------------------------|
D|-3---3/7---7-0---0-8-8----3---3/7---7-0---0-8-8----3---3/7---7-0---0-8-8---|
 
G|---------------------------------------------------------------------------|
D|---------------------------------------------------------------------------|
A|---------------------------------------------------------------------------|
D|-3---3/7---7-0---0-8-8----3---3/7---7-0---0-8-8----3---3/7---7-0---0-8-8---|
 
G|---------------------------------------------------------------------------|
D|---------------------------------------------------------------------------|
A|---------------------------------------------------------------------------|
D|-3---3/7---7-0---0-8-8----3---3/7---7-0---0-8-8-3---------------------------|
            
Submit corrections

↑ Back to top | Tablatures and chords for acoustic guitar and electric guitar, ukulele, drums are parodies/interpretations of the original songs. You may use it for private study, scholarship, research or language learning purposes only