Home » N » Neck Deep »

Neck Deep - les Turned Tabs

Artists:  A B C D E F G H I J K L M N O P Q R S T U V W X Y Z # 

les Turned Tabs

(ver. 1) Click to play this song!
Neck Deep
 Rating:
4.3/5 (10 votes)
                [Intro]

e|---------------------------------------------------------------------------|
B|-----------8-5-5-----------------------------------------------------------|
G|-----5-7-5-------7-7-5----5-7-9-9----5-7-7-5-7-7-9-7-5-5-------------------|
D|---------------------------------------------------------------------------|
A|---------------------------------------------------------------------------|
E|---------------------------------------------------------------------------|

e|---------------------------------------------------------------------------|
B|-----------8p5-5-----------------------------------------------------------|
G|-----5-7-5-------7-7p5-------7-7-7-9-9---5-7-7/9-10-9-7-5-7/9-10-9-7-9-5---|
D|-----------------------5---5-----------------------------------------------|
A|---------------------------------------------------------------------------|
E|---------------------------------------------------------------------------|

            
Submit corrections

↑ Back to top | Tablatures and chords for acoustic guitar and electric guitar, ukulele, drums are parodies/interpretations of the original songs. You may use it for private study, scholarship, research or language learning purposes only