» » »

Neck Deep - In Bloom Tabs

Artists:  A B C D E F G H I J K L M N O P Q R S T U V W X Y Z # 

In Bloom Tabs

(ver. 1) Click to play this song!
Neck Deep
 Rating:
4.3/5 (23 votes)

 In Bloom lessons Tabs too difficult? Try these video lessons and learn fast
 
                
[Opening] Guitar 1
D|--------------------|
A|--------------------|
F|--------6b7r6--4\2--|
C|-----7--------------|
G|--5-----------------|
C|--------------------|

[Intro/Verse] Guitar 1: (x3)
"Sometimes At Night I Let It Get To Me..."
D|--------------|----------------------|--------------|-----------------|
A|-----------0--|--------0-------0-----|-----------0--|--------5--5--5--|
F|-----6--------|-----6-------------6--|-----6--------|-----6-----------|
C|--7-----7-----|--7----------7--------|--7-----7-----|--7--------------|
G|--------------|----------------------|--------------|-----------------|
C|--------------|----------------------|--------------|-----------------|

D|--------------|----------------------|--------------|-----------------|
A|-----------0--|--------0----------0--|-----------0--|--------5--5--5--|
F|-----6--------|-----6----------6-----|-----6--------|-----6-----------|
C|--7-----7-----|--7----------7--------|--7-----7-----|--7--------------|
G|--------------|----------------------|--------------|-----------------|
C|--------------|----------------------|--------------|-----------------|


[Intro/Verse] Guitar 2:
"Sometimes At Night I Let It Get To Me..."
D|-----|-----|-----|--------|
A|-----|-----|-----|--------|
F|--7--|--7--|--2--|--4--6--|
C|--x--|--x--|--2--|--x--x--|
G|--5--|--5--|--0--|--2--4--|
C|-----|-----|-----|--------|

[PreChorus] Guitar 2
"No Sometimes That Is Not Enough..."
D|-------------------------|-------------------------|-------------------------|-------------------------|
A|-------------------------|-------------------------|-------------------------|-------------------------|
F|-14-14-14-14-14-14-14-14-|-14-14-14-14-14-14-14-14-|-14-14-14-14-14-14-14-14-|-14-14-14-14-14/16-16-16-|
C|--x--x--x--x--x--x--x--x-|--x--x--x--x--x--x--x--x-|--x--x--x--x--x--x--x--x-|--x--x--x--x--x--x--x--x-|
G|-12-12-12-12-12-12-12-12-|-12-12-12-12-12-12-12-12-|-12-12-12-12-12-12-12-12-|-12-12-12-12-12/14-14-14-|
C|-------------------------|-------------------------|-------------------------|-------------------------|

D|-------------------------|-------------------------|-------------------------|-------------------------|
A|-------------------------|-------------------------|-------------------------|-------------------------|
F|-16\14-14-14-14-14-14-14-|-14-14-14-14-14-14-14-14-|-14-14-14-14-14-14-14-14-|-14-14-14-14-14/18-18-18-|
C|--x--x--x--x--x--x--x--x-|--x--x--x--x--x--x--x--x-|--x--x--x--x--x--x--x--x-|--x--x--x--x--x--x--x--x-|
G|-14\12-12-12-12-12-12-12-|-12-12-12-12-12-12-12-12-|-12-12-12-12-12-12-12-12-|-12-12-12-12-12/16-16-16-|
C|-------------------------|-------------------------|-------------------------|-------------------------|

[Chorus] Guitar 1: (x2)
"And Stop Calling Me Out..."
D|----------------------------------------------|----------------------------------------------|
A|----------------------------------------------|----------------------------------------------|
F|--14--14--14--14--14--14--14--14--14--14--14--|--14--14--14--14--14--14--14--14--14--14--14--|
C|---x---x---x---x---x---x---x---x---x---x---x--|---x---x---x---x---x---x---x---x---x---x---x--|
G|--12--12--12--12--12--12--12--12--12--12--12--|--12--12--12--12--12--12--12--12--12--12--12--|
C|----------------------------------------------|----------------------------------------------|

D|----------------------------------------------|-------------------------------------------------|
A|----------------------------------------------|-------------------------------------------------|
F|--14--14--14--14--14--14--14--14--14--14--14--|--14/16--16--16--16--16--16--16--16--16--16--16--|
C|---x---x---x---x---x---x---x---x---x---x---x--|---x-x----x---x---x---x---x---x---x---x---x---x--|
G|--12--12--12--12--12--12--12--12--12--12--12--|--12/14--14--14--14--14--14--14--14--14--14--14--|
C|----------------------------------------------|-------------------------------------------------|

[Chorus] Guitar 2: (x2)
"And Stop Calling Me Out..."
D|--------------------------------|--------------------------------|
A|--------------------------------|--------------------------------|
F|--7--7--7--7--7--7--7--7--7--7--|--7--7--7--7--7--7--7--7--7--7--|
C|--7--7--7--7--7--7--7--7--7--7--|--7--7--7--7--7--7--7--7--7--7--|
G|--5--5--5--5--5--5--5--5--5--5--|--5--5--5--5--5--5--5--5--5--5--|
C|--------------------------------|--------------------------------|

D|--------------------------------|--------------------------------|
A|--------------------------------|--------------------------------|
F|--------------------------------|--------------------------------|
C|--7--7--7--7--7--7--7--7--7--7--|--9--9--9--9--9--9--9--9--9--9--|
G|--7--7--7--7--7--7--7--7--7--7--|--9--9--9--9--9--9--9--9--9--9--|
C|--7--7--7--7--7--7--7--7--7--7--|--9--9--9--9--9--9--9--9--9--9--|

[Post-Chorus] Guitar 1:(x2)
"In Bloom..."
D|------12------------12------|-----12------------12-------|
A|----------14------------12--|----------14----------------|
F|--14------------14----------|--14------------14------14--|
C|----------------------------|----------------------------|
G|----------------------------|----------------------------|
C|----------------------------|----------------------------|

[Post-Chorus] Guitar 2: (x2)
"In Bloom..."
D|--------------------------------|--------------------------------|
A|--------------------------------|--------------------------------|
F|--7--7--7--7--7--7--7--7--7--7--|--7--7--7--7--7--7--7--7--7--7--|
C|--7--7--7--7--7--7--7--7--7--7--|--7--7--7--7--7--7--7--7--7--7--|
G|--5--5--5--5--5--5--5--5--5--5--|--5--5--5--5--5--5--5--5--5--5--|
C|--------------------------------|--------------------------------|

D|--------------------------------|--------------------------------|
A|--------------------------------|--------------------------------|
F|--------------------------------|--------------------------------|
C|--7--7--7--7--7--7--7--7--7--7--|--9--9--9--9--9--9--9--9--9--9--|
G|--7--7--7--7--7--7--7--7--7--7--|--9--9--9--9--9--9--9--9--9--9--|
C|--7--7--7--7--7--7--7--7--7--7--|--9--9--9--9--9--9--9--9--9--9--|

[Verse 2] Guitar 2:(x4)
"And Thinking Back Upon Those Days..."
D|-----------------------------------------|--------------------------------------------|
A|--x--x-10-10--x-10-10--x-10-10--x-10-10--|--x--x-10-10--x-10-10--x-10-10--x-12-12-12--|
F|--x--x--9--9--x--9--9--x--9--9--x--9--9--|--x--x--9--9--x--9--9--x--9--9--x-11-11-11--|
C|--x--x--7--7--x--7--7--x--7--7--x--7--7--|--x--x--7--7--x--7--7--x--7--7--x--9--9--9--|
G|-----------------------------------------|--------------------------------------------|
C|-----------------------------------------|--------------------------------------------|

[PreChorus] Guitar 2
"And This Will Be The Last Time..."
D|--17--|--|--17------|--|---17--------------|--|---17------|--|
A|------|--|------17--|--|-------17------17--|--|---17------|--|
F|------|--|----------|--|-----------18------|--|-------14--|--|
C|------|--|----------|--|-------------------|--|-----------|--|
G|------|--|----------|--|-------------------|--|-----------|--|
C|------|--|----------|--|-------------------|--|-----------|--|


[PreChorus] Guitar 2
"And This Will Be The Last Time..."
D|-----|--|----------------|--|--|--|----------|--|
A|-10--|--|----------------|--|--|--|----------|--|
F|--9--|--|--14/16--16-14--|--|--|--|--16--16--|--|
C|--7--|--|---x--x---x--x--|--|--|--|---x---x--|--|
G|-----|--|--12/14--14\12--|--|--|--|--14--14--|--|
C|-----|--|----------------|--|--|--|----------|--|

[Chorus] Guitar 1: (x2)
"And Stop Calling Me Out..."
D|----------------------------------------------|----------------------------------------------|
A|----------------------------------------------|----------------------------------------------|
F|--14--14--14--14--14--14--14--14--14--14--14--|--14--14--14--14--14--14--14--14--14--14--14--|
C|---x---x---x---x---x---x---x---x---x---x---x--|---x---x---x---x---x---x---x---x---x---x---x--|
G|--12--12--12--12--12--12--12--12--12--12--12--|--12--12--12--12--12--12--12--12--12--12--12--|
C|----------------------------------------------|----------------------------------------------|

D|----------------------------------------------|-------------------------------------------------|
A|----------------------------------------------|-------------------------------------------------|
F|--14--14--14--14--14--14--14--14--14--14--14--|--14/16--16--16--16--16--16--16--16--16--16--16--|
C|---x---x---x---x---x---x---x---x---x---x---x--|---x-x----x---x---x---x---x---x---x---x---x---x--|
G|--12--12--12--12--12--12--12--12--12--12--12--|--12/14--14--14--14--14--14--14--14--14--14--14--|
C|----------------------------------------------|-------------------------------------------------|

[Chorus] Guitar 2: (x2)
"And Stop Calling Me Out..."
D|--------------------------------|--------------------------------|
A|--------------------------------|--------------------------------|
F|--7--7--7--7--7--7--7--7--7--7--|--7--7--7--7--7--7--7--7--7--7--|
C|--7--7--7--7--7--7--7--7--7--7--|--7--7--7--7--7--7--7--7--7--7--|
G|--5--5--5--5--5--5--5--5--5--5--|--5--5--5--5--5--5--5--5--5--5--|
C|--------------------------------|--------------------------------|

D|--------------------------------|--------------------------------|
A|--------------------------------|--------------------------------|
F|--------------------------------|--------------------------------|
C|--7--7--7--7--7--7--7--7--7--7--|--9--9--9--9--9--9--9--9--9--9--|
G|--7--7--7--7--7--7--7--7--7--7--|--9--9--9--9--9--9--9--9--9--9--|
C|--7--7--7--7--7--7--7--7--7--7--|--9--9--9--9--9--9--9--9--9--9--|

[Solo] Guitar 1:(x2)
D|------------------------|-------------------12\9--|------------------------|----------------9-------------|
A|--12/14--14--12--10-----|--12/14--14\12\10--------|--12/14--14--12--10-----|--12\10-----10-----10-----10--|
F|---------------------9--|-------------------------|---------------------9--|---------9-------------9------|
C|------------------------|-------------------------|------------------------|------------------------------|
G|------------------------|-------------------------|------------------------|------------------------------|
C|------------------------|-------------------------|------------------------|------------------------------|

[Solo] Guitar 2:(x2)
D|-----------|-----------|-----------|---------------------------|
A|-----------|-----------|-----------|---------------------------|
F|-----------|-----------|-----------|---------------------------|
C|--0--0--0--|--0--0--0--|--7--7--7--|--9--9--9--11--11--11--11--|
G|--0--0--0--|--0--0--0--|--7--7--7--|--9--9--9--11--11--11--11--|
C|--0--0--0--|--0--0--0--|--7--7--7--|--9--9--9--11--11--11--11--|


[Breakdown Chorus] Guitar 1: (x2)
"And Stop Calling Me Out..."
D|------------------------|-------------------|
A|-----5-----------5------|-----5----------0--|
F|--------6-----------6---|--------6----------|
C|--7-----------7---------|--7----------7-----|
G|------------------------|-------------------|
C|------------------------|-------------------|

[Chorus] Guitar 1: (x2)
"And Stop Calling Me Out..."
D|----------------------------------------------|----------------------------------------------|
A|----------------------------------------------|----------------------------------------------|
F|--14--14--14--14--14--14--14--14--14--14--14--|--14--14--14--14--14--14--14--14--14--14--14--|
C|---x---x---x---x---x---x---x---x---x---x---x--|---x---x---x---x---x---x---x---x---x---x---x--|
G|--12--12--12--12--12--12--12--12--12--12--12--|--12--12--12--12--12--12--12--12--12--12--12--|
C|----------------------------------------------|----------------------------------------------|

D|----------------------------------------------|-------------------------------------------------|
A|----------------------------------------------|-------------------------------------------------|
F|--14--14--14--14--14--14--14--14--14--14--14--|--14/16--16--16--16--16--16--16--16--16--16--16--|
C|---x---x---x---x---x---x---x---x---x---x---x--|---x-x----x---x---x---x---x---x---x---x---x---x--|
G|--12--12--12--12--12--12--12--12--12--12--12--|--12/14--14--14--14--14--14--14--14--14--14--14--|
C|----------------------------------------------|-------------------------------------------------|

[Chorus] Guitar 2: (x2)
"And Stop Calling Me Out..."
D|--------------------------------|--------------------------------|
A|--------------------------------|--------------------------------|
F|--7--7--7--7--7--7--7--7--7--7--|--7--7--7--7--7--7--7--7--7--7--|
C|--7--7--7--7--7--7--7--7--7--7--|--7--7--7--7--7--7--7--7--7--7--|
G|--5--5--5--5--5--5--5--5--5--5--|--5--5--5--5--5--5--5--5--5--5--|
C|--------------------------------|--------------------------------|

D|--------------------------------|--------------------------------|
A|--------------------------------|--------------------------------|
F|--------------------------------|--------------------------------|
C|--7--7--7--7--7--7--7--7--7--7--|--9--9--9--9--9--9--9--9--9--9--|
G|--7--7--7--7--7--7--7--7--7--7--|--9--9--9--9--9--9--9--9--9--9--|
C|--7--7--7--7--7--7--7--7--7--7--|--9--9--9--9--9--9--9--9--9--9--|

[Post-Chorus] Guitar 1:(x2)
"In Bloom..."
D|------12------------12------|-----12------------12-------|
A|----------14------------12--|----------14----------------|
F|--14------------14----------|--14------------14------14--|
C|----------------------------|----------------------------|
G|----------------------------|----------------------------|
C|----------------------------|----------------------------|

[Post-Chorus] Guitar 2: (x2)
"In Bloom..."
D|--------------------------------|--------------------------------|
A|--------------------------------|--------------------------------|
F|--7--7--7--7--7--7--7--7--7--7--|--7--7--7--7--7--7--7--7--7--7--|
C|--7--7--7--7--7--7--7--7--7--7--|--7--7--7--7--7--7--7--7--7--7--|
G|--5--5--5--5--5--5--5--5--5--5--|--5--5--5--5--5--5--5--5--5--5--|
C|--------------------------------|--------------------------------|

D|--------------------------------|--------------------------------|
A|--------------------------------|--------------------------------|
F|--------------------------------|--------------------------------|
C|--7--7--7--7--7--7--7--7--7--7--|--9--9--9--9--9--9--9--9--9--9--|
G|--7--7--7--7--7--7--7--7--7--7--|--9--9--9--9--9--9--9--9--9--9--|
C|--7--7--7--7--7--7--7--7--7--7--|--9--9--9--9--9--9--9--9--9--9--|

[Outro] Guitar 1: (x2)
"And Stop Calling Me Out..."
D|--------------|----------------------|--------------|--------0---------------|
A|-----------0--|--------0-------0-----|-----------0--|-----2-----0--2--2b3r2--|
F|-----6--------|-----6-------------6--|-----6--------|--2--------------2------|
C|--7-----7-----|--7----------7--------|--7-----7-----|-----------------0------|
G|--------------|----------------------|--------------|------------------------|
C|--------------|----------------------|--------------|------------------------|            
Submit corrections


        In Bloom lessons Hard to play? Try these video lessons and learn fast In Bloom lessons
        
↑ Back to top | Tablatures and chords for acoustic guitar and electric guitar, ukulele, drums are parodies/interpretations of the original songs. You may use it for private study, scholarship, research or language learning purposes only