» » »

Neck Deep - Growing Pains Tabs

Artists:  A B C D E F G H I J K L M N O P Q R S T U V W X Y Z # 

Growing Pains Tabs

(ver. 1) Click to play this song!
Neck Deep
 Rating:
4/5 (4 votes)

 Growing Pains  lessons Tabs too difficult? Try these video lessons and learn fast
 
                Tuning: Standard

Intro
e|---------------10-----10-----10-----10----------------7h8p7-5-3------------|
B|--8--------7-8----7-8----7-8----7-8----x4----------------------------------|
G|--7-X16--------------------------------------------------------------------|
D|--5------------------------------------------------------------------------|
A|---------------------------------------------------------------------------|
E|---------------------------------------------------------------------------|
Verse 1 x2
e|---------------------------------------------------------------------------|
B|---------------------------------------------------------------------------|
G|--------------5------------------------------------------------------------|
D|-5------2-----5-x8---------------------------------------------------------|
A|-5-x16--2-x8--3------------------------------------------------------------|
E|-3------0------------------------------------------------------------------|
Pre-Chorus
e|---------------------------------------------------------------------------|
B|---------------------------------------------------------------------------|
G|--------------------5-----7------------------------------------------------|
D|-5------4-----2-----5-x8--7-x8---------------------------------------------|
A|-5-x16--5-x8--2-x8--3-----5------------------------------------------------|
E|-3------2-----0------------------------------------------------------------|
Chorus x2
e|---------------------------------------------------------------------------|
B|---------------------------------------------------------------------------|
G|--------7-------------5----------------------------------------------------|
D|-5------7-x16--2------5-x16------------------------------------------------|
A|-5-x16--5------2-x16--3----------------------------------------------------|
E|-3-------------0-----------------------------------------------------------|
Verse 2 (part one) x2
e|---------------------------------------------------------------------------|
B|---------------------------------------------------------------------------|
G|---------------------------------------------------------------------------|
D|----------------------(bass line)---------------------10--9--7--5----------|
A|------------------------------------------------------10--9--7--5----------|
E|------------------------------------------------------8---7--5--3----------|
Verse 2 (part two) x2
e|---------------------------------------------------------------------------|
B|---------------------------------------------------------------------------|
G|--------------5------------------------------------------------------------|
D|-5------2-----5-x8---------------------------------------------------------|
A|-5-x16--2-x8--3------------------------------------------------------------|
E|-3------0------------------------------------------------------------------|
Bridge
e|---------------------------------------------------------------------------|
B|---------------------------------------------------------------------------|
G|--------------5------------------------------------------------------------|
D|-5------2-----5-x8---------------------------------------------------------|
A|-5-x16--2-x8--3------------------------------------------------------------|
E|-3------0------------------------------------------------------------------|
Pre-Chorus
e|---------------------------------------------------------------------------|
B|---------------------------------------------------------------------------|
G|--------------------5-----7------------------------------------------------|
D|-5------4-----2-----5-x8--7-x8---------------------------------------------|
A|-5-x16--5-x8--2-x8--3-----5------------------------------------------------|
E|-3------2-----0------------------------------------------------------------|

Chorus x2
e|---------------------------------------------------------------------------|
B|---------------------------------------------------------------------------|
G|--------7-------------5----------------------------------------------------|
D|-5------7-x16--2------5-x16------------------------------------------------|
A|-5-x16--5------2-x16--3----------------------------------------------------|
E|-3-------------0-----------------------------------------------------------|
Outro
e|---------------------------------------------------------------------------|
B|---------------10-10-10-7-7-7-8-8-8-7-7-7-8-8-7-7-x4-----------------------|
G|---------------------------------------------------------------------------|
D|--5------------------------------------------------------------------------|
A|--5--x16-------------------------------------------------------------------|
E|--3------------------------------------------------------------------------|
            
Submit corrections


        Growing Pains  lessons Hard to play? Try these video lessons and learn fast Growing Pains  lessons
        
↑ Back to top | Tablatures and chords for acoustic guitar and electric guitar, ukulele, drums are parodies/interpretations of the original songs. You may use it for private study, scholarship, research or language learning purposes only