Home » N » Neck Deep »

Neck Deep - Gold Steps Tabs

Artists:  A B C D E F G H I J K L M N O P Q R S T U V W X Y Z # 

Gold Steps Tabs

(ver. 1) Click to play this song!
Neck Deep
Tuning:Drop C

Intro
e|---------------------------------------------------------------------------|
B|---------------------------------------------------------------------------|
G|---------------------------------------------------------------------------|
D|-9-5-0545--0545--0545--577------4 times------------------------------------| 
A|-9-5-0545--0545--0545--577-------------------------------------------------|
E|-9-5-0545--0545--0545--577-------------------------------------------------|

Verse 
e|---------------------------------------------------------------------------|
B|---------------------------------------------------------------------------|
G|------------------------------------------------77-7-7-7-------------------|
D|-55-5-5-00-0-0-000-0-0-044-4-4-455-5-5-599-9-9-977-7-7-755-5-5-555-5-5-----| 2 times
A|-55-5-5-00-0-0-000-0-0-055-5-5-555-5-5-599-9-9-955-5-5-555-5-5-555-5-5-----|
E|-55-5-5=00-0-0-000-0-0-044-4-4-455-5-5-599-9-9-9--------55-5-5-555-5-5-----|

e|---------------------------------------------------------------------------|
B|---------------------------------------------------------------------------|
G|-------------------------------------7-7-7777-7-7-7777---------------------|
D|-2-2-2222-2-2-2222-5-5-5555-5-5-5555-7-7-7777-7-7-7777-7-7-7777777777777-7-|
A|-2-2-2222-2-2-2222-5-5-5555-5-5-5555-5-5-5555-5-5-5555-7-7-7777777777777-7-|
E|-2-2-2222-2-2-2222-5-5-5555-5-5-5555-------------------7-7-7777777777777-7-|

Chorus
e|---------------------------------------------------------------------------|
B|---------------------------------------------------------------------------|
G|---------------------------------------------------------------------------|
D|-0000000000000000-7777777777777777-2222222222222222-5555555555555555-------| 2 times
A|-0000000000000000-7777777777777777-2222222222222222-5555555555555555-------|
E|-0000000000000000-7777777777777777-2222222222222222-5555555555555555-------|

Intro 2x

Verse
e|---------------------------------------------------------------------------|
B|---------------------------------------------------------------------------|
G|------------------------------------------------77-7-7-7-------------------|
D|-55-5-5-00-0-0-000-0-0-044-4-4-455-5-5-599-9-9-977-7-7-755-5-5-555-5-5-----| 
A|-55-5-5-00-0-0-000-0-0-055-5-5-555-5-5-599-9-9-955-5-5-555-5-5-555-5-5-----|
E|-55-5-5=00-0-0-000-0-0-044-4-4-455-5-5-599-9-9-9--------55-5-5-555-5-5-----|

e|---------------------------------------------------------------------------|
B|---------------------------------------------------------------------------|
G|-------------------------------------7-7-7777-7-7-7777---------------------|
D|-2-2-2222-2-2-2222-5-5-5555-5-5-5555-7-7-7777-7-7-7777-7-7-7777777777777-7-|
A|-2-2-2222-2-2-2222-5-5-5555-5-5-5555-5-5-5555-5-5-5555-7-7-7777777777777-7-|
E|-2-2-2222-2-2-2222-5-5-5555-5-5-5555-------------------7-7-7777777777777-7-|

Chorus

Bridge
e|---------------------------------------------------------------------------|
B|---------------------------------------------------------------------------|
G|---------------------------------------------------------------------------|
D|--00000-00--00000-00-00-0000--55555-55--55555-55-55-7777--99999-99---------|
A|--00000-00--00000-00-00-0000--55555-55--55555-55-55-7777--99999-99---------|
E|--00000-00--00000-00-00-0000--55555-55--55555-55-55-7777--99999-99---------|

e|---------------------------------------------------------------------------|
B|---------------------------------------------------------------------------|
G|---------------------------------------------------------------------------|
D|--77777-77-77-7777--55555-55-55-7777--0~-----------------------------------|
A|--77777-77-77-7777--55555-55-55-7777--0~-----------------------------------|
E|--77777-77-77-7777--55555-55-55-7777--0~-----------------------------------|

Chorus 

Intro            
Submit corrections

↑ Back to top | Tablatures and chords for acoustic guitar and electric guitar, ukulele, drums are parodies/interpretations of the original songs. You may use it for private study, scholarship, research or language learning purposes only