Home » N » Neck Deep »

Neck Deep - Dont Tell Me Its Over Bass

Artists:  A B C D E F G H I J K L M N O P Q R S T U V W X Y Z # 

Dont Tell Me Its Over Bass

(ver. 1) Click to play this song!
Neck Deep
- Verse 1:
(I hear the phone...)

G|---------------------------|
D|---------------------------|
A|--33333333333--------------| x4
E|---------------3333--1111--|



- Pre-Chorus:
(Hold on...)

G|-------------------------------|
D|-------------------------------|
A|--33333333333------------------| x2
E|---------------3333--11111111--|



- Chorus:
(Dont tell me that it's over...)

G|---------------------------|
D|---------------------------|
A|--033333333333-------------|  x4
E|---------------3333--1111--|



- Interlude:

G|-------------------|
D|---------3r----5r--|
A|--3r---------------|  x2
E|-------------------|




- Verse 1:
(What's with the jokes...)

G|---------------------------|
D|---------------------------|
A|--33333333333--------------|  x4
E|---------------3333--1111--|



- Pre-Chorus:
(Hold on...)

G|-------------------------------|
D|-------------------------------|
A|--33333333333------------------|  x2
E|---------------3333--11111111--|



- Chorus:
(Dont tell me that it's over...)

G|---------------------------|
D|---------------------------|
A|--033333333333-------------|  x4
E|---------------3333--1111--|




- Interlude:

G|-------------------|
D|---------3r----5r--|
A|--3r---------------|  x2
E|-------------------|


G|---------------------------------------|
D|-------------------55x55x--77--333333--|
A|--33x33x33x333333----------------------|  x4
E|---------------------------------------|



- Chorus:
(Dont tell me that it's over...)

G|---------------------------|
D|---------------------------|
A|--033333333333-------------|  x8
E|---------------3333--1111--|



- Ending:
(Dont tell me that it's over...)

G|-------|
D|-------|
A|--03r--|
E|-------|            
Submit corrections

↑ Back to top | Tablatures and chords for acoustic guitar and electric guitar, ukulele, drums are parodies/interpretations of the original songs. You may use it for private study, scholarship, research or language learning purposes only