» » »

Neck Deep - December Tabs

Artists:  A B C D E F G H I J K L M N O P Q R S T U V W X Y Z # 

December Tabs

(ver. 1) Click to play this song!
Neck Deep
 Rating:
3/5 (21 vote)

 December  lessons Tabs too difficult? Try these video lessons and learn fast
 
                Guitar 0: Main Riff
Guitar 1: Rhythm
Guitar 2: Lead (Plays Guitar 0's parts when bored/not playing)

p= Pull off   h=Hammer On  /= Palm Mute

Intro Rhythm:

E|--------------
B|--------------
G|--3-----3--3--
D|--3-----3--3--
A|--1-----1--1--
D|--------------
          / /

Intro Main Riff (Just Fiddle With These Chords):

E|--------
B|--------
G|--3--2--
D|--3--3--
A|--------
D|--------

The Verse Rhythms are in triplets like (1-2-rest-1-2-3)

Verse Part 1 Rhythm:

E|--------------------
B|--------------------
G|--------------------
D|--1-----5-----1-----
A|--1-----5-----1-----
D|--1-----5-----1-----
   /     /     /
Verse Part 1 Lead:

E|--------------1----------------------1--
B|--------1--3-----3--------------1h3-----
G|--3--3--/--/---------------3--3----------
D|--/--/----------------------------------
A|----------------------------------------
D|----------------------------------------
    
Verse Part 2 Rhythm:

E|-----------------------
B|-----------------------
G|--3--------------------
D|--3-----1-----5-----1--
A|--1-----1-----5-----1--
D|--------1-----5-----1--

Verse Part 2 Lead:
           
E|--10-------|--8-----|------|-------------|-------|-----------|--13----|--11------|--10-----|----8-----|
B|------11---|----11--|--11--|--10--11-----|--11---|--10--11---|----11--|------11--|-----11--|------11--|
G|-----------|--------|------|-------------|-------|-----------|--------|----------|---------|----------|
D|-----------|--------|------|-------------|-------|-----------|--------|----------|---------|----------|
D|-----------|--------|------|-------------|-------|-----------|--------|----------|---------|----------|
           8x^      8x^    4x^           2x^     4x^         2x^      8x^        8x^       8x^        8x^ 
Chorus Rhythm (The 4 Chord Pop Song Progression):

E|--------------
B|--------------
G|--3-----------
D|--3--3--5--1--
A|--1--3--5--1--
D|-----3--5--1--

Chorus Lead:

E|-----------------------------------------------------------------
B|-----------------------------------------------------------------
G|-----------------------------------------------------------------
D|-----7--8--------7--8--10-----7--8-----------7--8--10--12p10--8--
A|--8-----------8------------8--------------8----------------------
D|-----------------------------------------------------------------

Main Riff (Again In case you forgot):

E|--------
B|--------
G|--3--2--
D|--3--3--
A|--------
D|--------

Post-Verse Solo:

E|--1--------------------1-----------3--1-----1-----------------------------1--5--6-----
B|-----3--1-----1-----------3--1-----------------3--1-----------------1--3--------------
G|-----------3-----3--------------3--------------------3--0--3-----3--------------------
D|--------------------------------------------------------------------------------------
A|--------------------------------------------------------------------------------------
D|--------------------------------------------------------------------------------------

Bridge Rhythm (This is the loud muted part, and it starts to get less muted
and starts to hit a continuous rhythm, with each repeat):

E|--------------------------------------------
B|--------------------------------------------
G|--------------3-----------------------------
D|--0-----1-----3-----3-----5-----1-----3--3--
A|--0-----1-----1-----3-----5-----1-----3--3--
D|--0-----1-----------3-----5-----1-----3--3--

Bridge Lead:
Rhythm- 1-&-2-&-3-4
E|------------------------------------------
B|-----------------------3------------------
G|--3--2-----5--3-----------3-----2h3p2-----
D|--3--3-----3--3--------3--3------------3--
A|------------------------------------------
D|------------------------------------------

End On: 

E|-----
B|-----
G|--3--
D|--3--
A|--1--
D|-----            
Submit corrections


        December  lessons Hard to play? Try these video lessons and learn fast December  lessons
        
↑ Back to top | Tablatures and chords for acoustic guitar and electric guitar, ukulele, drums are parodies/interpretations of the original songs. You may use it for private study, scholarship, research or language learning purposes only